=REUBEN= Forum Index =REUBEN=
Welcome to the official =REUBEN= forum
 
 FAQFAQ   SearchSearch   MemberlistMemberlist   UsergroupsUsergroups   RegisterRegister 
 ProfileProfile   Log in to check your private messagesLog in to check your private messages   Log inLog in 

Master Reuben Tablist
Goto page Previous  1, 2, 3, 4, 5, 6, 7, 8, 9, 10  Next
 
Post new topic   Reply to topic    =REUBEN= Forum Index -> Reuben
View previous topic :: View next topic  
Author Message
Mark/Buns



Age: 34
Joined: 26 Apr 2004
Posts: 1294
Location: Cardiff

PostPosted: Mon Nov 26, 2007 11:17 pm    Post subject: Reply with quote

nice one Aidan, looks like i got the intro right and thats it Laughing Rolling Eyes
Back to top
View user's profile Send private message
Aidan
Moderator


Age: 31
Joined: 19 Apr 2004
Posts: 3269
Location: Yateley, Hampshire

PostPosted: Mon Nov 26, 2007 11:20 pm    Post subject: Reply with quote

Sorry man, didn't realise you'd pipped me to the post until after I'd posted mine! Most of the notes in yours seem right except for the open strings, cos it's tuned down... if you see what I mean. So though in standard the 4 3 2 in the chorus works, the open is too high? I could just be being an idiot though... Wink
_________________
Well if you're just gonna be like that
Then I'll end up in a fight with someone that I really like
Back to top
View user's profile Send private message Send e-mail Visit poster's website
Mark/Buns



Age: 34
Joined: 26 Apr 2004
Posts: 1294
Location: Cardiff

PostPosted: Mon Nov 26, 2007 11:27 pm    Post subject: Reply with quote

nah mate your right, if i could be bothered to downtune it it would have been right, yeah my open strums are higher so it's wrong i guess..but the right thing to play...just not in the right tuning Very Happy

im talking bollocks now...oh well nice one anyway Very Happy
Back to top
View user's profile Send private message
colour_golden
Administrator


Age: 36
Joined: 18 Jan 2004
Posts: 1836
Location: Hull - UK

PostPosted: Mon Nov 26, 2007 11:33 pm    Post subject: Reply with quote

Thats the quickest tab you've ever wrote out my friend Very Happy
_________________
"Everybodys dead dave, Everybody is dead dave!"
Back to top
View user's profile Send private message Send e-mail MSN Messenger
Aidan
Moderator


Age: 31
Joined: 19 Apr 2004
Posts: 3269
Location: Yateley, Hampshire

PostPosted: Mon Nov 26, 2007 11:36 pm    Post subject: Reply with quote

To be fair structure and riff wise it's a pretty simple track. But yeah I should really finish all those tabs I started about 2 years ago...
_________________
Well if you're just gonna be like that
Then I'll end up in a fight with someone that I really like
Back to top
View user's profile Send private message Send e-mail Visit poster's website
Rusto
Guest






PostPosted: Tue Nov 27, 2007 2:43 pm    Post subject: Reply with quote

Aidan wrote:
To be fair structure and riff wise it's a pretty simple track. But yeah I should really finish all those tabs I started about 2 years ago...


what you really want to do is tab out 'Every time a Rockstar...' Very Happy
Back to top
scummonk



Age: 30
Joined: 13 Dec 2004
Posts: 62
Location: Hell (Hull), UK

PostPosted: Fri Nov 30, 2007 1:20 am    Post subject: Reply with quote

Top of my tab wishlist is "Short History...." such an awesome track. Anyone? Laughing

And thanks a bunch for tabbing "Christmas Is Awesome" gonna cover it in my band now if possible!
_________________
"When this next song came out as a single we was in Sheffield and some girl came up to me and asked "Are you german?" I said "No I'm from Surrey" she said "Oh that's shit!" and I thought, "What? You're from Sheffield!" - Jamie Lenman
Back to top
View user's profile Send private message
GS46




Joined: 26 Jun 2007
Posts: 437

PostPosted: Mon Dec 03, 2007 6:28 pm    Post subject: Reply with quote

scummonk wrote:
Top of my tab wishlist is "Short History...." such an awesome track. Anyone?


i agree.. this is important. but why no "Death of a Star" and "Words From Reuben"?
Back to top
View user's profile Send private message Visit poster's website
Kon-Foozed



Age: 26
Joined: 30 Dec 2006
Posts: 58

PostPosted: Sun Dec 16, 2007 8:52 pm    Post subject: Reply with quote

Anyone got anything on "What's good for me"?
I think the intro is G, E something then D on a d tuned guitar but I have no idea what the note inbetween is. I really can't tab this but would be happy enough to play the intro for now, anyone got any idea on the mystery note is? Laughing
_________________
"Her voice makes me think of her mouth makes me think of her breath makes me think of her breasts."
Back to top
View user's profile Send private message
fs_ollie



Age: 28
Joined: 31 Oct 2005
Posts: 75
Location: Ash Vale, Aldershot

PostPosted: Wed Jan 02, 2008 4:52 pm    Post subject: Reply with quote

there's a death of a star tab here but theres a few things wrong with it i think

http://www.ultimate-guitar.com/tabs/r/reuben/death_of_a_star_tab.htm

here are some of my suggestions for the bits i dont think sound right are....
(the strum timings aren't accurate by the, just work that out urself)

Main Riff/Intro
e|---------------------------|
B|---------------------------|
G|-7-7777-6-4-6/7-6-6-6-6-6-6-|
D|-0-0000-0-0-0---4-4-4-4-4-4-|
A|-0-0000-0-0-0---4-4-4-4-4-4-|
D|-0-0000-0-0-0---4-4-4-4-4-4-|

e|-------------------------|
B|-------------------------|
G|-7-7777-6-2-2-----------------|
D|-0-0000-0-0-0-11-11-11-11-11--|
A|-0-0000-0-0-0-9--9--9--9--9--|
D|-0-0000-0-0-0-9--9--9--9--9--|

e|---------------------------|
B|---------------------------|
G|-7-7-7-6-4-6/7-6-6-6-6-6-6-|
D|-0-0-0-0-0-0---4-4-4-4-4-4-|
A|-0-0-0-0-0-0---4-4-4-4-4-4-|
D|-0-0-0-0-0-0---4-4-4-4-4-4-|

e|-----------------------------------------------------------------|
B|----------------------------------------------------------------|
G|--------9/11-11-11-11-11-11-11/12/11-6-6-6-6-6-6-6----|
D|----------------------------------------------------------------|
A|-9797-7/9---9---9--9--9---9--9/ 10/9---4-4-4-4-4-4-4----|
D|----------------------------------------------------------------|

or

e|----------------------------------------------|
B|-------------------------------------------|
G|----6-6-6-6-6-6-6/444/66666666----|
D|----------------------------------------|
A|----4-4-4-4-4-4-4/222/44444444----|
D|-------------------------------------------|

pre verse
e|-------------------------------------|
B|-------------------------------------|
G|--------------------------------------|
D|--7---67p6\4---6--6/7---6-7p6---2---|
A|-------------------------------------|
D|-------------------------------------|

1st verse
e|----------------------------------|
B|---3-----------------------------|
G|---2-------555555-222222----|
D|---4-------333333-000000----|
A|----------------------------------|
D|---------------------------------|

i think these sound abit better, but i doubt they are right.
Back to top
View user's profile Send private message Visit poster's website
sad_statue_27




Joined: 14 Feb 2007
Posts: 1017

PostPosted: Fri Jan 04, 2008 8:45 pm    Post subject: Reply with quote

Ok, shall we just stop all this beating round the bush? Cut the shit and get down to business yeah? Ok...

Who the FUCK is going to tab Wrong & Sorry, and more importantly, get the fuck on with it!

Or alternatively, please may someone be really kind and put in the time and effort to tab tis song, as I'm sure lots of people (myself included) would really apprecaite it. Thank you.
Back to top
View user's profile Send private message
GS46




Joined: 26 Jun 2007
Posts: 437

PostPosted: Mon Jan 07, 2008 9:44 pm    Post subject: Reply with quote

http://www.wordsfromreuben.co.uk/phpBB2/viewtopic.php?t=5119&highlight=
Back to top
View user's profile Send private message Visit poster's website
sad_statue_27




Joined: 14 Feb 2007
Posts: 1017

PostPosted: Thu Jan 10, 2008 8:14 pm    Post subject: Reply with quote

Oh.

Thanks
Back to top
View user's profile Send private message
fs_ollie



Age: 28
Joined: 31 Oct 2005
Posts: 75
Location: Ash Vale, Aldershot

PostPosted: Fri Jan 11, 2008 8:32 pm    Post subject: Girls on top tab Reply with quote

[u][b]Girls on top tab[/b][/u]

Intro

D#]------------------------------------------------------------|
A#]------------------------------------------------------------|
F#]------------------------------------------------------------|
C#]--0-0-0-10-10-10-10----0-0-0-10-10-10-10-----|
G#]--0-0-0-10-10-10-10----0-0-0-10-10-10-10-------|
C#]--0-0-0-10-10-10-10----0-0-0-10-10-10-10------|


D#]-----------------------------------------------------|
A#]---------------------------------------------------------|
F#]-----------------------------------------------------------|
C#]--0-0-0-10-10-10-10----9-9-9-5-5-5---------|
G#]--0-0-0-10-10-10-10----9-9-9-5-5-5-------|
C#]--0-0-0-10-10-10-10----9-9-9-5-5-5------|

verse (mostly bass)

D#]----------0~------0~---------------------------------------------|
A#]----------0~------0~--------------------------------------------|
F#]----------0~-------0~------------------------------------------|
C#]--0~----0~------------------------------------------------------|
G#]--0~----0~---------------------------------------------------|
C#]--0~----0~---------------------------------------------------|

Pre chorus

D#]------------------------------------------------------------------------|
A#]----------------------------------------------------------------------|
F#]-------------------------------------------------------------------------|
C#]------0----0----0----0----0----0-0000000000000000----------------|
G#]--000-000-000-000-000-000-0000000000000000-----------------|
C#]--000-000-000-000-000-000-0000000000000000----------------|
P.M. -xx---xx---xx--xx--xx---xx--------------------------------------- |

Chorus

D#]------------------------------------------------------------|
A#]------------------------------------------------------------|
F#]------------------------------------------------------------|
C#]--0-0-0-0-7-7-7-7-5-5-5-5-8-8-8-8---------------------|
G#]--0-0-0-0-7-7-7-7-5-5-5-5-8-8-8-8-----------------------|
C#]--0-0-0-0-7-7-7-7-5-5-5-5-8-8-8-8-------------------|

Repeat Intro
Repeat Verse
Repeat Pre chorus
Repeat Chorus

Bridge

D#]----------------------------|
A#]----------------------------|
F#]----------------------------|
C#]--0-0-x-x-x-x------------|
G#]--0-0-x-x-x-x------------| x 4
C#]--0-0-x-x-x-x------------|

Repeat Intro
Repeat Pre-chorus
Repeat chorus

Silence
Top of neck strum by the sounds of it

Repeat Chorus

End


D#]-----------|
A#]-----------|
F#]-----------|
C#]--0-0----|
G#]--0-0----| x 8
C#]--0-0----|

D#]--------------|
A#]--------------|
F#]--------------|
C#]--0-0-------|
G#]--0-0--7h--| x 8
C#]--0-0-------|

h = harmonic, (i dont think this is accurate but it sounded pretty close)

D#]-----------|
A#]-----------|
F#]-----------|
C#]--0-0----|
G#]--0-0----|
C#]--0-0----|

It's close enough i would say.....[u][/u]


Last edited by fs_ollie on Fri Jan 11, 2008 8:33 pm; edited 1 time in total
Back to top
View user's profile Send private message Visit poster's website
GS46




Joined: 26 Jun 2007
Posts: 437

PostPosted: Fri Jan 11, 2008 8:34 pm    Post subject: Reply with quote

what's that meant to be?
Back to top
View user's profile Send private message Visit poster's website
Display posts from previous:   
Post new topic   Reply to topic    =REUBEN= Forum Index -> Reuben All times are GMT
Goto page Previous  1, 2, 3, 4, 5, 6, 7, 8, 9, 10  Next
Page 4 of 10

 
Jump to:  
You cannot post new topics in this forum
You cannot reply to topics in this forum
You cannot edit your posts in this forum
You cannot delete your posts in this forum
You cannot vote in polls in this forum


Powered by phpBB © 2001, 2005 phpBB Group