=REUBEN= Forum Index =REUBEN=
Welcome to the official =REUBEN= forum
 
 FAQFAQ   SearchSearch   MemberlistMemberlist   UsergroupsUsergroups   RegisterRegister 
 ProfileProfile   Log in to check your private messagesLog in to check your private messages   Log inLog in 

Master Reuben Tablist
Goto page Previous  1, 2, 3, 4, 5, 6, 7, 8, 9, 10  Next
 
Post new topic   Reply to topic    =REUBEN= Forum Index -> Reuben
View previous topic :: View next topic  
Author Message
Aidan
Moderator


Age: 31
Joined: 19 Apr 2004
Posts: 3269
Location: Yateley, Hampshire

PostPosted: Sun Sep 30, 2007 9:00 pm    Post subject: Reply with quote

Finished working out Crimson today! Can play it 100%. Will finish the tab now.
_________________
Well if you're just gonna be like that
Then I'll end up in a fight with someone that I really like
Back to top
View user's profile Send private message Send e-mail Visit poster's website
Haunted Devil



Age: 28
Joined: 10 Oct 2005
Posts: 311
Location: Winsford, Cheshire.

PostPosted: Sun Sep 30, 2007 10:31 pm    Post subject: Reply with quote

Well, this is only guitar tab wise. But if we get one done for Oh, The Shame then RIRB will be completely done. And from the Pilot EP we only need Crimson and Words From Reuben doing.
Smile
_________________
Back to top
View user's profile Send private message
Aidan
Moderator


Age: 31
Joined: 19 Apr 2004
Posts: 3269
Location: Yateley, Hampshire

PostPosted: Mon Oct 01, 2007 10:18 am    Post subject: Reply with quote

Schwing.

Code:

Reuben - Crimson
Tabbed by Aidan O'Brien - aidan.e.obrien@gmail.com on 01/10/07

Finally finished it. Pretty happy with it too. I've only added "x 2" etc. where it's played more than once. If that doesn't appear, just play it once. As always, it's drop D down half a step but I can't be bothered to write it, because people always look at it and go "Oh, it's in a weird tuning, I won't bother", without realising they can play it in standard(ish) tuning.

INTRO

*Drum Fill*

e|------------------------------------------------------------------------
B|------------------------------------------------------------------------
G|------------------------------------------------------------------------
D|-7-7-7-7-7-7-7-7-7-7-7-7-7-7-7-7-7-7-7-7-7-7-7-7-7-7-7-7-7-7-7-7-------- x 2
A|-5-5-5-5-5-5-5-5-5-5-5-5-5-5-5-5-5-5-5-5-5-5-5-5-5-5-5-5-5-5-5-5--------
D|-0-0-0-0-0-0-8-8-8-8-8-8-8-8-8-8-4-4-4-4-4-4-5-5-5-5-5-5-5-5-5-5--------

e|------------------------------------------------------------------------
B|------------------------------------------------------------------------
G|-7-7-7-7-7-7-7-7-7-7-7-7-7-7-7-7-7-7-7-7-7-7-7-7-7-7-7-7-7-7-7-7--------
D|-x-x-x-x-x-x-x-x-x-x-x-x-x-x-x-x-x-x-x-x-x-x-x-x-x-x-x-x-x-x-x-x--------
A|-5-5-5-5-5-5-5-5-5-5-5-5-5-5-5-5-5-5-5-5-5-5-5-5-5-5-5-5-5-5-5-5--------
D|-0-0-0-0-0-0-8-8-8-8-8-8-8-8-8-8-4-4-4-4-4-4-5-5-5-5-5-5-5-5-5-5--------

e|------------------------------------------------------------------------
B|------------------------------------------------------------------------
G|------------------------------------------------------------------------
D|-7-7-7-7-7-7-7-7-7-7-7-7-7-7-4-4-5-5-5-5-5-5-5-5-5-5-5-5-5-5-5-5--------
A|-5-5-5-5-5-5-5-5-5-5-5-5-5-5-4-4-3-3-3-3-3-3-3-3-3-3-3-3-3-3-3-3--------
D|-0-0-0-0-0-0-5-5-5-5-5-5-5-5-4-4-3-3-3-3-3-3-3-3-3-3-3-3-3-3-3-3--------

VERSE

e|--------------------------------------------------------------------------------------
B|-7------------------------------------------------------------------------------------
G|-6------------------------------------------------------------------------------------
D|-5------------------------------------------------------------------------------------
A|--------------------------------------------------------------------------------------
D|-------------------------------------------------2-2-2-2-2-2-2-2-2-1-1-1-1-4-4-4------   
"Man, am I that pig headed... I let the whole thing slide..."

e|--------------------------------------------------------------------------------------
B|-7-7-7-7-7-7-7-7-7-7-7-7-7-7-7-7-7-7-7-7-7-7-7-7--------------------------------------
G|-6-6-6-6-6-6-6-6-6-6-6-6-6-6-6-6-6-6-6-6-6-6-6-6--------------------------------------
D|-5-5-5-5-5-5-5-5-5-5-5-5-5-5-5-5-5-5-5-5-5-5-5-5-2-2-2-2-2-2-2-2-2-1---1-1-4---4------
A|-------------------------------------------------2-2-2-2-2-2-2-2-2-1---1-1-4---4------
D|-------------------------------------------------2-2-2-2-2-2-2-2-2-1---1-1-4---4------

"Cracks appear in my vaneer..."

PRE CHORUS
e|---------------------------------------------------------------
B|---------------------------------------------------------------
G|---------------------------------------------------------------
D|--------------------------------------------------------------- x 2
A|-5-5-x-5-5--3---x-5---5-5--3---5-5-x-5-5--3---x-5--5-5-5--3----
D|---------------------------------------------------------------
"And when it gets to it, I shrink and fall away..."

e|-----------------------------------------------------------------
B|-----------------------------------------------------------------
G|-----------------------------------------------------------------
D|----------------------------------------------------------------- x 2
A|-----------------------------------------------------------------
D|-0-0-0-0-0-0-0-0-0h1-1-1-1-1-1-1-1/3-3-3-3-3-3-3-3/4-4-4-4-4-4-4-
"I've not anticipated..."

CHORUS
e|------------------------------------------------------------------------
B|------------------------------------------------------------------------
G|------------------------------------------------------------------------
D|-7-7-7-7-7-7-7-7-7-7-7-7-7-7-7-7-7-7-7-7-7-7-7-7-7-7-7-7-7-7-7-7-------- x 2
A|-5-5-5-5-5-5-5-5-5-5-5-5-5-5-5-5-5-5-5-5-5-5-5-5-5-5-5-5-5-5-5-5--------
D|-0-0-0-0-0-0-8-8-8-8-8-8-8-8-8-8-4-4-4-4-4-4-5-5-5-5-5-5-5-5-5-5--------
"Your grinned suggestions..."

e|------------------------------------------------------------------------
B|------------------------------------------------------------------------
G|-7-7-7-7-7-7-7-7-7-7-7-7-7-7-7-7-7-7-7-7-7-7-7-7-7-7-7-7-7-7-7-7-------
D|-x-x-x-x-x-x-x-x-x-x-x-x-x-x-x-x-x-x-x-x-x-x-x-x-x-x-x-x-x-x-x-x-------- x 1
A|-5-5-5-5-5-5-5-5-5-5-5-5-5-5-5-5-5-5-5-5-5-5-5-5-5-5-5-5-5-5-5-5--------
D|-0-0-0-0-0-0-8-8-8-8-8-8-8-8-8-8-4-4-4-4-4-4-5-5-5-5-5-5-5-5-5-5--------
"And I'll ask you softly cos I don't want the answer..."

e|------------------------------------------------------------------------
B|------------------------------------------------------------------------
G|------------------------------------------------------------------------
D|-7-7-7-7-7-7-7-7-7-7-7-7-7-7-4-4-5-5-5-5-5-5-5-5-5-5-5-5-5-5-5-5--------
A|-5-5-5-5-5-5-5-5-5-5-5-5-5-5-4-4-3-3-3-3-3-3-3-3-3-3-3-3-3-3-3-3--------
D|-0-0-0-0-0-0-5-5-5-5-5-5-5-5-4-4-3-3-3-3-3-3-3-3-3-3-3-3-3-3-3-3--------
"And I'd fall if you said fall..."

PREVERSE

This bit is slightly different on Pilot to the way it is played now, where Jon plays one of the guitar parts. Nonetheless, here it is as it appears on Pilot. Guitar Part 1 and Guitar Part 2 are played simultaneously.

Guitar Part 1 (Panned Left)
e|------------------------------------------------------------------------
B|-7-7---------7-7---------7-7---------7-7---------7-7---------7----------
G|-6-6---------6-6---------6-6---------6-6---------6-6---------6----------
D|-5-5---------5-5---------5-5---------5-5---------5-5---------5----------
A|------------------------------------------------------------------------
D|------------------------------------------------------------------------

Guitar Part 2 (Panned Right)
e|------------------------------------------------------------------------
B|-------7-7---------7-7---------7-7---------7-7--------------------------
G|-------6-6---------6-6---------6-6---------6-6---6/LONG-SLOW-SLIDE/-----
D|-------5-5---------5-5---------5-5---------5-5---5/LONG-SLOW-SLIDE/-----
A|------------------------------------------------------------------------
D|------------------------------------------------------------------------

The way it's played live is the same as guitar part one (with the bass filling the gaps previously filled by Guitar part 2) but with a different last chord:

e|------------------------------------------------------------------------
B|-7-7---------7-7---------7-7---------7-7---------7-7---------6----------
G|-6-6---------6-6---------6-6---------6-6---------6-6---------5----------
D|-5-5---------5-5---------5-5---------5-5---------5-5---------4----------
A|------------------------------------------------------------------------
D|------------------------------------------------------------------------

VERSE 2

e|---------------------------------------------------------------
B|-7-7---7-7---7-7---7-7---7-7---7-7---7-7---7-7---7-7---7-7--6--
G|-6-6---6-6---6-6---6-6---6-6---6-6---6-6---6-6---6-6---6-6--5--
D|-5-5---5-5---5-5---5-5---5-5---5-5---5-5---5-5---5-5---5-5--4--
A|---------------------------------------------------------------
D|---------------------------------------------------------------
"Seven days is all it takes..."

e|----------------------------------------------------------------
B|-7-7---7-7---7-7---7-7---7-7-7----------------------------------
G|-6-6---6-6---6-6---6-6---6-6-6----------------------------------
D|-5-5---5-5---5-5---5-5---5-5-6----------------------------------
A|----------------------------------------------------------------
D|-------------------------------2-2-2-2-2-2-2-2-2-1-1-1-1-4-4-4--
"To push me overboard..."

e|------------------------------------------------------------------
B|-7-7-7-7-7-7-7-7-7-7-7-7-7-7-7-7-7-7-7-7-7-7-7-7-7-7-7-7-7-7-7-7--
G|-x-x-x-x-x-x-x-x-x-x-x-x-x-x-x-x-x-x-x-x-x-x-x-x-x-x-x-x-x-x-x-x--
D|-9-9-9-9-9-9-7-7-7-5-5-5-5-5-7-7-9-9-9-9-9-9-7-7-7-5-5-5-5-5-7-7--
A|-5-5-5-5-5-5-5-5-5-5-5-5-5-5-5-5-5-5-5-5-5-5-5-5-5-5-5-5-5-5-5-5--
D|-5-5-5-5-5-5-5-5-5-5-5-5-5-5-5-5-5-5-5-5-5-5-5-5-5-5-5-5-5-5-5-5--
"I see the faces turn in my direction..."

e|------------------------------------------------------------------
B|-7-7-7-7-7-7-7-7-7-7-7-7-7-7-7-7----------------------------------
G|-x-x-x-x-x-x-x-x-x-x-x-x-x-x-x-x----------------------------------
D|-9-9-9-9-9-9-7-7-7-5-5-5-5-5-5-5-2-2-2-2-2-2-2-2-2-1---1-1-4---4--
A|-5-5-5-5-5-5-5-5-5-5-5-5-5-5-5-5-2-2-2-2-2-2-2-2-2-1---1-1-4---4--
D|-5-5-5-5-5-5-5-5-5-5-5-5-5-5-5-5-2-2-2-2-2-2-2-2-2-1---1-1-4---4--
"And I feel so unsure..."

e|---------------------------------------------------------------
B|---------------------------------------------------------------
G|---------------------------------------------------------------
D|--------------------------------------------------------------- x 2
A|-5-5-x-5-5--3---x-5---5-5--3---5-5-x-5-5--3---x-5--5-5-5--3----
D|---------------------------------------------------------------
"And when it gets to it..."

e|-----------------------------------------------------------------
B|-----------------------------------------------------------------
G|-----------------------------------------------------------------
D|----------------------------------------------------------------- x 2
A|-----------------------------------------------------------------
D|-0-0-0-0-0-0-0-0-0h1-1-1-1-1-1-1-1/3-3-3-3-3-3-3-3/4-4-4-4-4-4-4-
"I got Mick Jagger action..."

QUIET CHORUS

e|-----------------------------------------------------------------
B|-----------------------------------------------------------------
G|-----------------------------------------------------------------
D|-7-----7-----7---7-----7-----7---7-----7-----7---7-----7-----7---
A|-5-----5-----5---5-----5-----5---5-----5-----5---5-----5-----5---
D|-0-----8-----8---4-----5-----5---0-----8-----8---4-----5-----5---
"You don't have to tell me, I know already..."

e|-----------------0----------------------------------------------------|-------------
B|----------------------------------------------------------------------|-------------
G|-7-----7-----7--(7)----7-----7----------------------------------------|-------------
D|-x-----x-----x---x-----x-----x---7-----7---7--7-----3--3--3--3--3--3--|-3--3--3--3--
A|-5-----5-----5---5-----5-----5---5-----5---5--5--4--3--3--3--3--3--3--|-3--3--3--3--
D|-0-----8-----8---4-----5-----5---0-----5---5--5--4--3--3--3--3--3--3--|-3--3--3--3--
"And I see your face when my eyes aren't even open..."          \Last four double/
                            \speed to match/
                             \ snare drum /


BRIDGE

e|------------------------------------------------------------------
B|------------------------------------------------------------------
G|------------------------------------------------------------------
D|------------------------------------------------------------------ x 2
A|------------------------------------------------------------------
D|-0-0-0-0-0-0-0-7-9-9-9-9-9-9-9-7-0-0-0-0-0-0-0-7-9-9-9-9-9-9-9-7--

On Pilot the first part continues overdubbed, but this guitar part also starts.

e|-------------------------------------------------------------------------------------------------
B|-------------------------------------------------------------------------------------------------
G|-11-11-11-11-11-11-11-10-11-11-11-11-11-11-11-10-11-11-11-11-11-11-11-10-11-11-11-11-11-11-11-10-
D|-x--x--x--x--x--x--x--x--x--x--x--x--x--x--x--x--x--x--x--x--x--x--x--x--x--x--x--x--x--x--x--x-- x 3
A|-9--9--9--9--9--9--9--8--9--9--9--9--9--9--9--8--9--9--9--9--9--9--9--8--9--9--9--9--9--9--9--8--
D|-0--0--0--0--0--0--0--0--9--9--9--9--9--9--9--9--0--0--0--0--0--0--0--0--9--9--9--9--9--9--9--9--
(After twice through:) "Loser, I'm a loser..."

e|-------------------------------------------------------------------------------------------------
B|-------------------------------------------------------------------------------------------------
G|-11-11-11-11-11-11-11-10-11-11-11-11-11-11-11-10-11-11-11-11-11-11-11-10-11-11-11-11-11-11-11-11-
D|-x--x--x--x--x--x--x--x--x--x--x--x--x--x--x--x--x--x--x--x--x--x--x--x--x--x--x--x--x--x--x--x-- x 1
A|-9--9--9--9--9--9--9--8--9--9--9--9--9--9--9--8--9--9--9--9--9--9--9--8--9--9--9--9--9--9--9--9--
D|-0--0--0--0--0--0--0--0--9--9--9--9--9--9--9--9--0--0--0--0--0--0--0--0--9--9--9--9--9--9--9--9--

FINAL CHORUS

e|------------------------------------------------------------------------
B|------------------------------------------------------------------------
G|------------------------------------------------------------------------
D|-7-7-7-7-7-7-7-7-7-7-7-7-7-7-7-7-7-7-7-7-7-7-7-7-7-7-7-7-7-7-7-7-------- x 2
A|-5-5-5-5-5-5-5-5-5-5-5-5-5-5-5-5-5-5-5-5-5-5-5-5-5-5-5-5-5-5-5-5--------
D|-0-0-0-0-0-0-8-8-8-8-8-8-8-8-8-8-4-4-4-4-4-4-5-5-5-5-5-5-5-5-5-5--------
"I'll make you sorry you ever met me..."

e|------------------------------------------------------------------------
B|------------------------------------------------------------------------
G|-7-7-7-7-7-7-7-7-7-7-7-7-7-7-7-7-7-7-7-7-7-7-7-7-7-7-7-7-7-7-7-7--------
D|-x-x-x-x-x-x-x-x-x-x-x-x-x-x-x-x-x-x-x-x-x-x-x-x-x-x-x-x-x-x-x-x-------- x 1
A|-5-5-5-5-5-5-5-5-5-5-5-5-5-5-5-5-5-5-5-5-5-5-5-5-5-5-5-5-5-5-5-5--------
D|-0-0-0-0-0-0-8-8-8-8-8-8-8-8-8-8-4-4-4-4-4-4-5-5-5-5-5-5-5-5-5-5--------
"It's not your fault but..."

e|---------------------------
B|---------------------------
G|---------------------------
D|-7-7-7-7-7-7-7-7-7-7-7-7---
A|-5-5-5-5-5-5-5-5-5-5-5-5---
D|-0-0-0-0-0-0-5-5-5-5-5-5---   
"I'll fall if you say..."

OUTRO

e|---------------------------------------------------------------
B|---------------------------------------------------------------
G|---------------------------------------------------------------
D|-5-5---5-5-5---5-5-5---5-5-5---5-5-5---5-5-5---5-5-5---5-5-5---
A|-3-3---3-3-3---3-3-3---3-3-3---3-3-3---3-3-3---3-3-3---3-3-3---
D|-3-3---3-3-3---3-3-3---3-3-3---3-3-3---3-3-3---3-3-3---3-3-3---
"FAAALLL... Say fall and I'll fall..."

e|-----------------------------------------------------------------   
B|-----------------------------------------------------------------
G|-----------------------------------------------------------------
D|-5-5-5---5-5-5---5-5-5---5-5-5---5-5-5-5-5-5-5-5-5-5-5-5-5-5-5-5-
A|-3-3-3---3-3-3---3-3-3---3-3-3---3-3-3-3-3-3-3-3-3-3-3-3-3-3-3-3-
D|-3-3-3---3-3-3---3-3-3---3-3-3---3-3-3-3-3-3-3-3-3-3-3-3-3-3-3-3-
"Fall and I'll fall...         FaaAaaAaaAaaAaAAaaAaaAaAaAaAll..."

What a tune.

_________________
Well if you're just gonna be like that
Then I'll end up in a fight with someone that I really like
Back to top
View user's profile Send private message Send e-mail Visit poster's website
Alfie



Age: 28
Joined: 21 Feb 2007
Posts: 501

PostPosted: Tue Oct 02, 2007 8:12 pm    Post subject: Reply with quote

Fucking yes.

Crimsyface
_________________
This is not real I am not here This is not me

www.ottawahoax.bandcamp.com
Back to top
View user's profile Send private message Send e-mail MSN Messenger
stuck_in_essex



Age: 31
Joined: 01 Oct 2007
Posts: 11
Location: Wivenhoe, Essex

PostPosted: Thu Oct 04, 2007 10:14 pm    Post subject: Reply with quote

I know this is off point but its freaking me out!

Just been looking at some of these tabs and I noticed that one of the tabbers is a guy called Alex Johnson. This means that out there is another Alex Johnson who plays bass and likes Reuben!

It looks like I'm no longer the unique person I thought I was.
_________________
I spoke to Jon at the Mean Fiddler, AWESOME!
Back to top
View user's profile Send private message
jmmkcd



Age: 29
Joined: 03 Jul 2007
Posts: 881
Location: Peterborough

PostPosted: Thu Oct 04, 2007 10:27 pm    Post subject: Reply with quote

or you're sleep tabbing.

it's a terrible affliction.
_________________
<@Jonnor> are you actually taking the michael?
<+Justin> what
<+Justin> is that a racist comment?
Back to top
View user's profile Send private message Visit poster's website MSN Messenger
stuck_in_essex



Age: 31
Joined: 01 Oct 2007
Posts: 11
Location: Wivenhoe, Essex

PostPosted: Thu Oct 04, 2007 10:29 pm    Post subject: Reply with quote

It would just depress me if I found out I could play better asleep than awake.
_________________
I spoke to Jon at the Mean Fiddler, AWESOME!
Back to top
View user's profile Send private message
GS46




Joined: 26 Jun 2007
Posts: 437

PostPosted: Sun Oct 21, 2007 10:03 pm    Post subject: Reply with quote

it's really REALLY annoying me how wrong the "nobody loves you" tab is/sounds.. has anyone got a way of playing so it sounds correct?
Back to top
View user's profile Send private message Visit poster's website
birosandbluetack




Joined: 08 Oct 2007
Posts: 286
Location: Morden

PostPosted: Sun Oct 21, 2007 10:29 pm    Post subject: Reply with quote

whats the deal with red machine, i know nothing about it?
_________________
=So I built a wall from bricks and spit, and trapped everything inside of it =
Back to top
View user's profile Send private message
Lee



Age: 31
Joined: 25 Apr 2004
Posts: 1947
Location: Shrewsbury

PostPosted: Sun Oct 21, 2007 10:34 pm    Post subject: Reply with quote

its an unreleased/unfinished song that was demo'd for racecar.
_________________
Tiny little ducklings wearing paper hats. Standing outside the worlds tallest block of flats.
Back to top
View user's profile Send private message Send e-mail Visit poster's website
ric
Administrator


Age: 38
Joined: 15 Dec 2003
Posts: 2403
Location: Haslemere

PostPosted: Mon Oct 22, 2007 8:20 am    Post subject: Reply with quote

what makes you so sure it's unfinished? Wink
Back to top
View user's profile Send private message Visit poster's website
Haunted Devil



Age: 28
Joined: 10 Oct 2005
Posts: 311
Location: Winsford, Cheshire.

PostPosted: Mon Oct 22, 2007 10:42 am    Post subject: Reply with quote

Thanks for adding in the Crimson tab Aidan. Very Happy
_________________
Back to top
View user's profile Send private message
Rich



Age: 33
Joined: 07 Feb 2005
Posts: 2255
Location: Londinium

PostPosted: Mon Oct 22, 2007 12:01 pm    Post subject: Reply with quote

ric wrote:
what makes you so sure it's unfinished? Wink



ooooh

would be nice to hear it as a b-side. with vocals! maybe
Back to top
View user's profile Send private message Send e-mail Visit poster's website MSN Messenger
Chrispy



Age: 33
Joined: 27 Jan 2004
Posts: 1233
Location: Purgatory, Scotland

PostPosted: Mon Oct 22, 2007 12:23 pm    Post subject: Reply with quote

I always thought it would sound class as an interlude between tracks.
_________________
Stay Puffed
Back to top
View user's profile Send private message Send e-mail Visit poster's website MSN Messenger
Aidan
Moderator


Age: 31
Joined: 19 Apr 2004
Posts: 3269
Location: Yateley, Hampshire

PostPosted: Mon Nov 26, 2007 11:08 pm    Post subject: Reply with quote

Code:
Track: Christmas is Awesome
Available: From iTunes, from December the 17th.
It is: Awesome.
Tabbed by: Aidan O'Brien
melodramatic.me@gmail.com

Reuben tune their guitars down, blah blah blah. For this speech about guitar tuning, see any other tab I've written.

INTRO

Note that the only difference between the two riffs is that the second time Jamie hits the 15th fret rather than the 12th.

e|---------------------------------------------------------------------------------
B|---------------------------------------------------------------------------------
G|---------------------------------------------------------------------------------
D|-0-0-0-10-0-0-0-10-0-0-0-10-0-0-0-12-0-0-0-10-0-0-0-10-0-0-0-10-10-10-9---5-5-3--
A|-0-0-0-10-0-0-0-10-0-0-0-10-0-0-0-12-0-0-0-10-0-0-0-10-0-0-0-10-10-10-9---5-5-3--
D|-0-0-0-10-0-0-0-10-0-0-0-10-0-0-0-12-0-0-0-10-0-0-0-10-0-0-0-10-10-10-9---5-5-3--
   \P.M/    \P.M/    \P.M/    \P.M/    \P.M/    \P.M/    \P.M/

e|---------------------------------------------------------------------------------
B|---------------------------------------------------------------------------------
G|---------------------------------------------------------------------------------
D|-0-0-0-10-0-0-0-10-0-0-0-10-0-0-0-12-0-0-0-15-0-0-0-10-0-0-0-10-10-10-9---5-5-3--
A|-0-0-0-10-0-0-0-10-0-0-0-10-0-0-0-12-0-0-0-15-0-0-0-10-0-0-0-10-10-10-9---5-5-3--
D|-0-0-0-10-0-0-0-10-0-0-0-10-0-0-0-12-0-0-0-15-0-0-0-10-0-0-0-10-10-10-9---5-5-3--
   \P.M/    \P.M/    \P.M/    \P.M/    \P.M/    \P.M/    \P.M/
                                                                 "ONE TWO THREE FOUR...'

VERSE 1

e|---------------------------------------------------------------------------------
B|---------------------------------------------------------------------------------
G|---------------------------------------------------------------------------------
D|-0-0-0-10-0-0-0-10-0-0-0-10-0-0-0-12-0-0-0-10-0-0-0-10-0-0-0-10-10-10-9---5-5-3-- x 2
A|-0-0-0-10-0-0-0-10-0-0-0-10-0-0-0-12-0-0-0-10-0-0-0-10-0-0-0-10-10-10-9---5-5-3--
D|-0-0-0-10-0-0-0-10-0-0-0-10-0-0-0-12-0-0-0-10-0-0-0-10-0-0-0-10-10-10-9---5-5-3--
   \P.M/    \P.M/    \P.M/    \P.M/    \P.M/    \P.M/    \P.M/
"Well it's the 25th..."

e|---------------------------------------------------------------------------------
B|---------------------------------------------------------------------------------
G|---------------------------------------------------------------------------------
D|-0-0-0-10-0-0-0-10-0-0-0-10-0-0-0-12-0-0-0-15-0-0-0-10-0-0-0-10-10-10-9---5-5-3-- x 2
A|-0-0-0-10-0-0-0-10-0-0-0-10-0-0-0-12-0-0-0-15-0-0-0-10-0-0-0-10-10-10-9---5-5-3--
D|-0-0-0-10-0-0-0-10-0-0-0-10-0-0-0-12-0-0-0-15-0-0-0-10-0-0-0-10-10-10-9---5-5-3--
   \P.M/    \P.M/    \P.M/    \P.M/    \P.M/    \P.M/    \P.M/
"2000 years ago..."

CHORUS

e|-----------------------------------------------------------------------
B|-----------------------------------------------------------------------
G|-----------------------------------------------------------------------
D|----------------------------------------------------------------------- x 2
A|-----------------------------------------------------------------------
D|-5-0-5-4-3-0-10-11-12-0-12-11-10-0-3-4-5-0-5-4-3-0-5-6-7-0-5-0-3-0-2-0-
"Everybody is welcome..."

etc.

VERSE 2

e|---------------------------------------------------------------------------------
B|---------------------------------------------------------------------------------
G|---------------------------------------------------------------------------------
D|-0-0-0-10-0-0-0-10-0-0-0-10-0-0-0-12-0-0-0-10-0-0-0-10-0-0-0-10-10-10-9---5-5-3-- x 2
A|-0-0-0-10-0-0-0-10-0-0-0-10-0-0-0-12-0-0-0-10-0-0-0-10-0-0-0-10-10-10-9---5-5-3--
D|-0-0-0-10-0-0-0-10-0-0-0-10-0-0-0-12-0-0-0-10-0-0-0-10-0-0-0-10-10-10-9---5-5-3--
   \P.M/    \P.M/    \P.M/    \P.M/    \P.M/    \P.M/    \P.M/   
"You got a horrid shirt..."

e|---------------------------------------------------------------------------------
B|---------------------------------------------------------------------------------
G|---------------------------------------------------------------------------------
D|-0-0-0-10-0-0-0-10-0-0-0-10-0-0-0-12-0-0-0-15-0-0-0-10-0-0-0-10-10-10-9---5-5-3-- x 2
A|-0-0-0-10-0-0-0-10-0-0-0-10-0-0-0-12-0-0-0-15-0-0-0-10-0-0-0-10-10-10-9---5-5-3--
D|-0-0-0-10-0-0-0-10-0-0-0-10-0-0-0-12-0-0-0-15-0-0-0-10-0-0-0-10-10-10-9---5-5-3--
   \P.M/    \P.M/    \P.M/    \P.M/    \P.M/    \P.M/    \P.M/
"You gotta eat a sprout..."


CHORUS

e|-----------------------------------------------------------------------
B|-----------------------------------------------------------------------
G|-----------------------------------------------------------------------
D|----------------------------------------------------------------------- x 2
A|-----------------------------------------------------------------------
D|-5-0-5-4-3-0-10-11-12-0-12-11-10-0-3-4-5-0-5-4-3-0-5-6-7-0-5-0-3-0-2-0-
"Everybody is welcome..."

Then it goes heavier with the straight beat...

e|-----------------------------------------------------------------------------
B|-----------------------------------------------------------------------------
G|-----------------------------------------------------------------------------
D|-5-0-5-4-3-0-10-11-12-0-12-11-10-0-3-4-5-0-5-4-3-0-10-11-12-0-12-11-10-0-3-4-- x 1
A|-5-0-5-4-3-0-10-11-12-0-12-11-10-0-3-4-5-0-5-4-3-0-10-11-12-0-12-11-10-0-3-4-
D|-5-0-5-4-3-0-10-11-12-0-12-11-10-0-3-4-5-0-5-4-3-0-10-11-12-0-12-11-10-0-3-4-

e|-----------------------------------------------------------------------
B|-----------------------------------------------------------------------
G|-----------------------------------------------------------------------
D|-5-0-5-4-3-0-10-11-12-0-12-11-10-0-3-4-5-0-5-4-3-0-5-6-7---5---3---2---
A|-5-0-5-4-3-0-10-11-12-0-12-11-10-0-3-4-5-0-5-4-3-0-5-6-7---5---3---2---
D|-5-0-5-4-3-0-10-11-12-0-12-11-10-0-3-4-5-0-5-4-3-0-5-6-7---5---3---2---
                         "Christmas iiiiis..."
OUTRO

This bit sounds oddly like SOTP...

e|------------------------------------------------------------
B|------------------------------------------------------------
G|-10-10--10-10--10--10-10--10-10--10--10-10--10-10--10--10---
D|-10-10--10-10--10--10-10--10-10--10--10-10--10-10--10--10--- x 2
A|-0--0---0--0---0---0--0---0--0---0---0--0---0--0---0---0----
D|-0--0---0--0---0---0--0---0--0---0---0--0---0--0---0---0----

e|---------------------------------------------------------------
B|---------------------------------------------------------------
G|---22-22-----22---22---22-22-----22---22---22-22-----22---22---
D|-0-x--x--0-0-x--0-x--0-x--x--0-0-x--0-x--0-x--x--0-0-x--0-x--0- x 2
A|-0-20-20-0-0-20-0-20-0-20-20-0-0-20-0-20-0-20-20-0-0-20-0-20-0-
D|-0-------0-0----0----0-------0-0----0----0-------0-0----0----0-

Note that if your guitar doesn't go high enough to reach fret 22, you can use this instead.

e|---------------------------------------------------------------
B|---18-18-----18---18---18-18-----18---18---18-18-----18---18---
G|---x--x------x----x----x--x------x----x----x--x------x----x----
D|-0-15-15-0-0-15-0-15-0-15-15-0-0-15-0-15-0-15-15-0-0-15-0----0- x 2
A|-0-------0-0----0----0-------0-0----0----0-------0-0----0----0-
D|-0-------0-0----0----0-------0-0----0----0-------0-0----0----0-

Merry Christmas... a month early...


_________________
Well if you're just gonna be like that
Then I'll end up in a fight with someone that I really like
Back to top
View user's profile Send private message Send e-mail Visit poster's website
Display posts from previous:   
Post new topic   Reply to topic    =REUBEN= Forum Index -> Reuben All times are GMT
Goto page Previous  1, 2, 3, 4, 5, 6, 7, 8, 9, 10  Next
Page 3 of 10

 
Jump to:  
You cannot post new topics in this forum
You cannot reply to topics in this forum
You cannot edit your posts in this forum
You cannot delete your posts in this forum
You cannot vote in polls in this forum


Powered by phpBB © 2001, 2005 phpBB Group