=REUBEN= Forum Index =REUBEN=
Welcome to the official =REUBEN= forum
 
 FAQFAQ   SearchSearch   MemberlistMemberlist   UsergroupsUsergroups   RegisterRegister 
 ProfileProfile   Log in to check your private messagesLog in to check your private messages   Log inLog in 

"Good Luck" Tab
Goto page Previous  1, 2
 
Post new topic   Reply to topic    =REUBEN= Forum Index -> Reuben
View previous topic :: View next topic  
Author Message
fs_ollie



Age: 28
Joined: 31 Oct 2005
Posts: 75
Location: Ash Vale, Aldershot

PostPosted: Wed Nov 28, 2007 7:12 pm    Post subject: Reply with quote

the main basis of it is right but theres a few bits different
(sorry bout the line up, cant be bothered, in a rush)

the verse is
e|-----------------------|------------------------|-----------------------|-------------
B|-----------------------|------------------------|----------------------|-------------
G|-----------------------|-----------1-----------|-----------------------|1-1---2s4-----
D|-----------1-----------|----1h2-----2---(2)--|-----------1----------|2-2---4s6-----
A|----0h2------2---(2)-|0----------------------|----0h2------2--(2)--|0-0---0-0----
E|0----------------------|------------------------|0----------------------|--------------

the prechorus is


e|-0----------0----------0-----------0--
B|---0--4p0----0--4p0-----0--4p0-----
G|---------------------------------------
D|---------------------------------------
A|-4---------------------0--------------
E|------------4-----------------------0-- etc


and the chorus is

e|--------------------------------------------
B|---------------------------------------------
G|---------------------------------------------
D|-7-7--4/6 6-----------6-6-------------------
A|-7-7----------7-7-/9--6-6--6-6------------
E|-5-5--------------------4-4-------7-7-4-----

so yeah its pretty much all right just a little different in places


Last edited by fs_ollie on Wed Nov 28, 2007 7:14 pm; edited 1 time in total
Back to top
View user's profile Send private message Visit poster's website
Display posts from previous:   
Post new topic   Reply to topic    =REUBEN= Forum Index -> Reuben All times are GMT
Goto page Previous  1, 2
Page 2 of 2

 
Jump to:  
You cannot post new topics in this forum
You cannot reply to topics in this forum
You cannot edit your posts in this forum
You cannot delete your posts in this forum
You cannot vote in polls in this forum


Powered by phpBB © 2001, 2005 phpBB Group