=REUBEN= Forum Index =REUBEN=
Welcome to the official =REUBEN= forum
 
 FAQFAQ   SearchSearch   MemberlistMemberlist   UsergroupsUsergroups   RegisterRegister 
 ProfileProfile   Log in to check your private messagesLog in to check your private messages   Log inLog in 

VFVD tabs
Goto page 1, 2  Next
 
Post new topic   Reply to topic    =REUBEN= Forum Index -> Releases
View previous topic :: View next topic  
Author Message
Mark/Buns



Age: 34
Joined: 26 Apr 2004
Posts: 1294
Location: Cardiff

PostPosted: Wed Sep 14, 2005 12:14 am    Post subject: VFVD tabs Reply with quote

I know aidan is probably already working on them...

ive got the first 3mins of return of the jedi

B-----------------------------------------
G-----------------------------------------
F#----------------------------------------
C#--x--x--x----0---x--x--x----0--x----0 }
G#--x--x--x----0---x--x--x----0--x----0 } main riff
C#--12 12 12--0--12 12 12--0--12---0 }

B--------------------
G--------------------
F#--------------------
C#--12 12 12 12 12 }
G#--12 12 12 12 12 } x 4
C#--12 12 12 12 12 }

chorus
B----------------------------------------------------------------
G-----------------------------------------------------------------
F#----------------------------------------------------------------
C#--888--888--8--666--666--6--333--333--3--000--000--0 }
G#--888--888--8--666--666--6--333--333--3--000--000--0 } x 3
C#--888--888--8--666--666--6--333--333--3--000--000--0 }

not too sure about this solo bit

C#--12h--12h-----------10--11--12 } i know there's 1 part it slides
G#--------------13h-------------------- } right to the top of the neck
C#-------------------------------------- }

B-----------------------------------------
G-----------------------------------------
F#----------------------------------------
C#--x--x--x----0---x--x--x----0--x----0 }
G#--x--x--x----0---x--x--x----0--x----0 } main riff
C#--12 12 12--0--12 12 12--0--12---0 }

B--------------------
G--------------------
F#--------------------
C#--12 12 12 12 12 }
G#--12 12 12 12 12 } x 4
C#--12 12 12 12 12 }

C#--33333-33333--00000-00000 }
G#--33333-33333--00000-00000 } x4
C#--33333-33333--00000-00000 }

the fun bit
C#--12---12-12-12-11---11-11-11-7---11---12 }
G#--12---12-12-12-11---11-11-11-7---11---12 } x7
C#--12---12-12-12-11---11-11-11-7---11---12 }

this is as far as i have worked out, there's similar bits in the last 3 or 4mins but alot of different bits too...maybe aidan or anyone else can help finish it off... Razz
Back to top
View user's profile Send private message
sacstan



Age: 30
Joined: 31 Jul 2004
Posts: 131
Location: sheffield

PostPosted: Wed Sep 14, 2005 3:17 pm    Post subject: Reply with quote

cool!

ill have a go at it.

but i've got most of some mothers.... down.

and some of it's all about control too. Very Happy

oooh! and most of alpha signal three!!
_________________
"turn that on at a party, aint nothing happening. Wack that boy out, everyone be lovin it"
Back to top
View user's profile Send private message Send e-mail
Aidan
Moderator


Age: 31
Joined: 19 Apr 2004
Posts: 3269
Location: Yateley, Hampshire

PostPosted: Wed Sep 14, 2005 3:56 pm    Post subject: Reply with quote

I moved into my new home yesterday in Guildford... I have some bits and bobs that I've done, but nothing concrete as yet. The Jedi tab looks pretty cool, but I don't have my guitar with me right now. I'll give it a shot when I get home. ... I've managed to get a pretty good version of all the tracks sans vocals and with guitar boosted, and most of the chords seem less tricky than those on racecar, so woo Smile soon...
_________________
Well if you're just gonna be like that
Then I'll end up in a fight with someone that I really like
Back to top
View user's profile Send private message Send e-mail Visit poster's website
Mark/Buns



Age: 34
Joined: 26 Apr 2004
Posts: 1294
Location: Cardiff

PostPosted: Wed Sep 14, 2005 4:22 pm    Post subject: Reply with quote

awesome, i can play bits of everytime a teenager... and good night too
Back to top
View user's profile Send private message
coldilou




Joined: 14 Sep 2005
Posts: 4
Location: dawlish, devon yeh!

PostPosted: Fri Sep 16, 2005 4:47 pm    Post subject: Reply with quote

cool thanks i love that sonng...

but does anyone have the tabs or can work it out .....or ya know. Surprised .. to ermm 'nobody loves you' or 'boy' or 'lights out'

thankyoooooo..............!!!

x
_________________
nobody loves you like i do........
Back to top
View user's profile Send private message
sunshine the werewolf
Guest






PostPosted: Fri Sep 16, 2005 5:19 pm    Post subject: Reply with quote

coldilou wrote:
cool thanks i love that sonng...

but does anyone have the tabs or can work it out .....or ya know. Surprised .. to ermm 'nobody loves you' or 'boy' or 'lights out'

thankyoooooo..............!!!

x


there is a lights out tab on [url]www.mxtabs.net [/url]which seems pretty accurate to me
Back to top
sacstan



Age: 30
Joined: 31 Jul 2004
Posts: 131
Location: sheffield

PostPosted: Fri Sep 16, 2005 6:05 pm    Post subject: Reply with quote

yeah thats my tab Very Happy

its also on http://www.fallofthebastille.co.uk/index.asp
_________________
"turn that on at a party, aint nothing happening. Wack that boy out, everyone be lovin it"
Back to top
View user's profile Send private message Send e-mail
Haunted Devil



Age: 28
Joined: 10 Oct 2005
Posts: 311
Location: Winsford, Cheshire.

PostPosted: Tue Oct 11, 2005 5:35 pm    Post subject: Reply with quote

Has anyone tabbed the solo on 'A Kick In The Mouth'?
I have the whole tab besides that and I will post it on www.fallofthebastille.co.uk as soon as I have the solo down.
I have just submitted an (what I think is) accurate tab of Blamethrower.
_________________
Back to top
View user's profile Send private message
colour_golden
Administrator


Age: 37
Joined: 18 Jan 2004
Posts: 1836
Location: Hull - UK

PostPosted: Tue Oct 11, 2005 7:39 pm    Post subject: Reply with quote

You sir are cool. I've added it to the site. I see your also nifty with photoshop?
_________________
"Everybodys dead dave, Everybody is dead dave!"
Back to top
View user's profile Send private message Send e-mail MSN Messenger
Haunted Devil



Age: 28
Joined: 10 Oct 2005
Posts: 311
Location: Winsford, Cheshire.

PostPosted: Tue Oct 11, 2005 9:22 pm    Post subject: Reply with quote

colour_golden wrote:
You sir are cool. I've added it to the site. I see your also nifty with photoshop?


You saying I'm cool?
Added what to what site?
Nope. Mate did it. I don't have the software.
He's doing me another Reuben one soon.
_________________
Back to top
View user's profile Send private message
veryexcellent



Age: 32
Joined: 29 Jul 2004
Posts: 1633
Location: Dorset

PostPosted: Tue Oct 11, 2005 9:26 pm    Post subject: Reply with quote

Haunted Devil wrote:
Added what to what site?


I guess colour_golden was talking about the fall of the bastille site, its run by him and Aidan.
_________________
Neither of which Jamie had ever played before the sessions. Id never played them before, he says.
Back to top
View user's profile Send private message Send e-mail Visit poster's website
Haunted Devil



Age: 28
Joined: 10 Oct 2005
Posts: 311
Location: Winsford, Cheshire.

PostPosted: Tue Oct 11, 2005 9:52 pm    Post subject: Reply with quote

Oh I see.
Well I added all the lyrics from Racecar Is Racecar Backwards and 'A Kick In The Mouth' aswell but no-one has added them on.
They're 100% correct aswell. Unlike some of the others.
Anyway... back to topic.
Has anyone at all tabbed the 'A Kick In The Mouth' solo?
_________________
Back to top
View user's profile Send private message
Guest







PostPosted: Fri Dec 30, 2005 12:40 am    Post subject: Reply with quote

last time i was on this site reuben had only just released scared of the police. anywho i thought id try to be helpful and add what i know of the song "best enemies"

turn your strings to:

C# G# C# F# A# D#

riff 1

-------------------
-------------------3h5
-5---5---5---4h5---
--5---5---5--------
0---0---0---0------
-------------------

-------------------
-------------------
-5---5---5----5----
--5---5---5--4-4---
0---0---0---0------
-------------------
riff 2

--------------------
--------------------
----5----5----5-----5
----5----5----5-----4
0-0--0-0--0-0--0-0--
-------------------- x 8

--------------------
--------------------
----5----5----5-----5
----5----5----5-----5
--------------------
5-5--5-5--5-5--5-5--

--------------------
--------------------
----5----5----5-----5
----5----5----5-----5
--------------------
2-2--2-2--2-2--2-2--

--------------------
--------------------
----5----5----5----5
----5----5----5----5
--------------------
3-3--3-3--3-3--3-3--

--------------------
--------------------
----5----5----5-----5
----5----5----5-----5
--------------------
2-2--2-2--2-2--2-2--

chorus chords

-------------------
-------------------
-------------------
-10--9---7--5--3
-10--10--7--5--3
-10--10--7--5--3

theres another chord for the chorus but im bored now so someone else can fill in the blanks.
Back to top
Haunted Devil



Age: 28
Joined: 10 Oct 2005
Posts: 311
Location: Winsford, Cheshire.

PostPosted: Sat Dec 31, 2005 11:54 am    Post subject: Reply with quote

Hmmm... strange. How come everything I have submitted on fall of the bastille hasn't been put on the new, updated version?
_________________
Back to top
View user's profile Send private message
sacstan



Age: 30
Joined: 31 Jul 2004
Posts: 131
Location: sheffield

PostPosted: Sat Dec 31, 2005 12:22 pm    Post subject: Reply with quote

not meaning this to be bad or anything.
but they just might not sound right.
_________________
"turn that on at a party, aint nothing happening. Wack that boy out, everyone be lovin it"
Back to top
View user's profile Send private message Send e-mail
Display posts from previous:   
Post new topic   Reply to topic    =REUBEN= Forum Index -> Releases All times are GMT
Goto page 1, 2  Next
Page 1 of 2

 
Jump to:  
You cannot post new topics in this forum
You cannot reply to topics in this forum
You cannot edit your posts in this forum
You cannot delete your posts in this forum
You cannot vote in polls in this forum


Powered by phpBB © 2001, 2005 phpBB Group