=REUBEN= Forum Index =REUBEN=
Welcome to the official =REUBEN= forum
 
 FAQFAQ   SearchSearch   MemberlistMemberlist   UsergroupsUsergroups   RegisterRegister 
 ProfileProfile   Log in to check your private messagesLog in to check your private messages   Log inLog in 

"Good Luck" Tab
Goto page 1, 2  Next
 
Post new topic   Reply to topic    =REUBEN= Forum Index -> Reuben
View previous topic :: View next topic  
Author Message
GS46




Joined: 26 Jun 2007
Posts: 437

PostPosted: Wed Jun 27, 2007 8:31 am    Post subject: "Good Luck" Tab Reply with quote

Listening to the new album, I was more than surprised to find a calm, acoustic duet for track 7. And MY GOD it is good.

What i wanted to ask is: does anyone have/know of the guitar tab for that? I really want to learn to play it...
Back to top
View user's profile Send private message Visit poster's website
colour_golden
Administrator


Age: 37
Joined: 18 Jan 2004
Posts: 1836
Location: Hull - UK

PostPosted: Wed Jun 27, 2007 8:49 am    Post subject: Reply with quote

Aidan has done it, i have it here but im not sure if he wants it posting yet?
_________________
"Everybodys dead dave, Everybody is dead dave!"


Last edited by colour_golden on Wed Jun 27, 2007 9:22 am; edited 1 time in total
Back to top
View user's profile Send private message Send e-mail MSN Messenger
GS46




Joined: 26 Jun 2007
Posts: 437

PostPosted: Wed Jun 27, 2007 8:54 am    Post subject: Reply with quote

... would REALLY appreciate it if he did. Wink
Back to top
View user's profile Send private message Visit poster's website
colour_golden
Administrator


Age: 37
Joined: 18 Jan 2004
Posts: 1836
Location: Hull - UK

PostPosted: Wed Jun 27, 2007 9:49 pm    Post subject: Reply with quote

Actually i dont see why he wouldnt want it posted so here goes, all credit to Aidan, its pretty much spot on by my ears Very Happy

Code:

Artist: Reuben
Song: Good Luck
Available on: In Nothing We trust
Tabbed by: Aidan O'Brien - aidan.e.obrien@gmail.com on 15/06/07

The acousticy singalong track I expect to see at lots of open mic nights in the near future. It's half a step down, but I've written it in drop D cos I can't be bothered with all the different giggery pokery. Sing it loud and proud.

INTRO

e|----------------------------------------------------
B|----------------------------------------------------
G|---------------------------------------------1-2-4--
D|-------1-------------6-------------1---------2-4-6--
A|---0h2-----2-----6h7-----7-----0h2-----2-(0)-0-0-0--
D|-2-------------7-------------2----------------------

FIRST VERSE

e|----------------------------------------------------
B|----------------------------------------------------
G|---------------------------------------------1-2-4--
D|-------1-------------6-------------1---------2-4-6--
A|---0h2-----2-----6h7-----7-----0h2-----2-(0)-0-0-0--
D|-2-------------7-------------2----------------------
"Long ago I woke up early..."

e|----------------------------------------------------
B|----------------------------------------------------
G|---------------------------------------------1-2-1--
D|-------1-------------6-------------1---------2-4-2--
A|---0h2-----2-----6h7-----7-----0h2-----2-(0)-0-0-0--
D|-2-------------7-------------2----------------------

"But then one saturday morning..."

e|----------------------------------------------------
B|----------------------------------------------------
G|---------------------------------------------1-2-4--
D|-------1-------------6-------------1---------2-4-6--
A|---0h2-----2-----6h7-----7-----0h2-----2-(0)-0-0-0--
D|-2-------------7-------------2----------------------
"He made it clear that I was..."

e|----------------------------------------------------
B|----------------------------------------------------
G|---------------------------------------------1-2-1--
D|-------1-------------6-------------1---------2-4-2--
A|---0h2-----2-----6h7-----7-----0h2-----2-(0)-0-0-0--
D|-2-------------7-------------2----------------------

"He had to hire in some other girl..."

PRE CHORUS

e|-0---------0---------0---------0--
B|---0--4p0----0--4p0----0--4p0-----
G|----------------------------------
D|----------------------------------
A|-4-------------------0------------
D|-----------6-------------------2--
"But a few words in his defence..."

e|-0---------0---------0---------4--
B|---0--4p0----0--4p0----0--4p0-----
G|----------------------------------
D|----------------------------------
A|-4-------------------0------------
D|-----------6-------------------2--
"There was no bullshit pretence..."

e|-4p0-------4p0-------4p0------7---
B|-----4p0-------4p0-------4p0------
G|----------------------------------
D|----------------------------------
A|-4-------------------0--------7---
D|-----------6----------------------
"There was no bullshit pretence..."

e|----------0------------------0---------------
B|----------0------------------0---------------
G|-----6---(6)------------9---(9)--------------
D|-----4------------------7--------------------
A|-4------------------7------------------------
D|-4------------------7------------------------
"So he sent me away..."

CHORUS

e|------------------------------------
B|------------------------------------
G|------------------------------------
D|-7-7---------------1-1--------------
A|-7-7--/11-11-7-7-9-x-x-- 6-6-2-2-0--
D|-7-7---------------2-2--------------
"Ok... good luck...."
e|------------------------------------
B|------------------------------------
G|------------------------------------
D|-7-7---------------1-1--------------
A|-7-7--/11-11-7-7-9-x-x--/6-6-2-2-0--
D|-7-7---------------2-2--------------
"Good luck, I hope I never see you again..."

e|------------------------------------
B|------------------------------------
G|------------------------------------
D|-7-7---------------1-1--------------
A|-7-7--/11-11-7-7-9-x-x-- 6-6-2-2-0--
D|-7-7---------------2-2--------------

e|----------------------
B|----------------------
G|----------------------
D|-7-7------------------
A|-7-7--/11-11-7-(7)/9--
D|-7-7------------------
"Good luck..."

PRE VERSE
 
e|----------------------------------------------------
B|----------------------------------------------------
G|---------------------------------------------1-2-4--
D|-------1-------------6-------------1---------2-4-6--
A|---0h2-----2-----6h7-----7-----0h2-----2-(0)-0-0-0--
D|-2-------------7-------------2----------------------

SECOND VERSE

Same as the first, but what the hell, it's virtually no effort to copy and paste.

e|----------------------------------------------------
B|----------------------------------------------------
G|---------------------------------------------1-2-4--
D|-------1-------------6-------------1---------2-4-6--
A|---0h2-----2-----6h7-----7-----0h2-----2-(0)-0-0-0--
D|-2-------------7-------------2----------------------
"There was this girl I slept with..."

e|----------------------------------------------------
B|----------------------------------------------------
G|---------------------------------------------1-2-1--
D|-------1-------------6-------------1---------2-4-2--
A|---0h2-----2-----6h7-----7-----0h2-----2-(0)-0-0-0--
D|-2-------------7-------------2----------------------

"And when I say slept..."

e|----------------------------------------------------
B|----------------------------------------------------
G|---------------------------------------------1-2-4--
D|-------1-------------6-------------1---------2-4-6--
A|---0h2-----2-----6h7-----7-----0h2-----2-(0)-0-0-0--
D|-2-------------7-------------2----------------------
"I thought that we were married..."

e|----------------------------------------------------
B|----------------------------------------------------
G|---------------------------------------------1-2-1--
D|-------1-------------6-------------1---------2-4-2--
A|---0h2-----2-----6h7-----7-----0h2-----2-(0)-0-0-0--
D|-2-------------7-------------2----------------------

"But then she made it clear that..."

PRE CHORUS

e|-0---------0---------0---------0--
B|---0--4p0----0--4p0----0--4p0-----
G|----------------------------------
D|----------------------------------
A|-4-------------------0------------
D|-----------6-------------------2--
"It was lovely..."

e|-0---------0---------0---------4--
B|---0--4p0----0--4p0----0--4p0-----
G|----------------------------------
D|----------------------------------
A|-4-------------------0------------
D|-----------6-------------------2--
"There's a space..."

e|-4p0-------4p0-------4p0------7---
B|-----4p0-------4p0-------4p0------
G|----------------------------------
D|----------------------------------
A|-4-------------------0--------7---
D|-----------6----------------------
"I think we have grown apart..."

e|----------0------------------0---------------
B|----------0------------------0---------------
G|-----6---(6)------------9---(9)--------------
D|-----4------------------7--------------------
A|-4------------------7------------------------
D|-4------------------7------------------------
"So go take a hike..."

CHORUS

Here the bass takes over the single note bits, but if you're playing solo, just play the same way you did in the first chorus.

e|-----------------
B|-----------------
G|-----------------
D|-7-7--------1-1--
A|-7-7--------x-x--
D|-7-7--------2-2--
"Alright..."

e|-----------------
B|-----------------
G|-----------------
D|-7-7--------1-1--
A|-7-7--------x-x--
D|-7-7--------2-2--
"Good luck, I hope I never see you again..."

e|-----------------
B|-----------------
G|-----------------
D|-7-7--------1-1--
A|-7-7--------x-x--
D|-7-7--------2-2--


e|-----0-------0-------0------------
B|-----0-------0-------0------------
G|-----6-------6-------6------------
D|-4-4---4-4-4---4-4-4---4-4-4-4-6--
A|-4-4---4-4-4---4-4-4---4-4-4-4-6--
D|-4-4---4-4-4---4-4-4---4-4-4-4-6--
"Cos if this is goodbye..."

Then the single notes come back in:

e|------------------------------------
B|------------------------------------
G|------------------------------------
D|-7-7---------------1-1--------------
A|-7-7--/11-11-7-7-9-x-x-- 6-6-2-2-0--
D|-7-7---------------2-2--------------
"Good luck..."
e|------------------------------------
B|------------------------------------
G|------------------------------------
D|-7-7---------------1-1--------------
A|-7-7--/11-11-7-7-9-x-x--/6-6-2-2-0--
D|-7-7---------------2-2--------------
"Goooood luck, I hope I never see you again..."

e|------------------------------------
B|------------------------------------
G|------------------------------------
D|-7-7---------------1-1--------------
A|-7-7--/11-11-7-7-9-x-x---6-6-2-2-0--
D|-7-7---------------2-2--------------

e|-----0-------0-------0-------------------0-----
B|-----0-------0-------0-------------------0-----
G|-----6-------6-------6---------------9---9-----
D|-4-4---4-4-4---4-4-4---4-4-4-4-6-7---7---------
A|-4-4---4-4-4---4-4-4---4-4-4-4-6-7---7---------
D|-4-4---4-4-4---4-4-4---4-4-4-4-6-7-------------
"Cos if this is goodbye...I hope that you die"

Outro

e|------------------------------------------------------------------
B|------------------------------------------------------------------
G|-----------------2-2-2-2-2-2-2-2------------------2-2-2-2-2-2-2-2-
D|-2-2-2-2-2-2-2-2-2-2-2-2-2-2-2-2--2-2-2-2-2-2-2-2-2-2-2-2-2-2-2-2-
A|-2-2-2-2-2-2-2-2-0-0-0-0-0-0-0-0--2-2-2-2-2-2-2-2-0-0-0-0-0-0-0-0-
D|-2-2-2-2-2-2-2-2------------------2-2-2-2-2-2-2-2-----------------
 \______________P.M.____________/
"Cos if you hurt me..."


e|---------------------------------
B|---------------------------------
G|-----------------2-2-2-2-2-2-2-2-
D|-2-2-2-2-2-2-2-2-2-2-2-2-2-2-2-2-
A|-2-2-2-2-2-2-2-2-0-0-0-0-0-0-0-0-
D|-2-2-2-2-2-2-2-2-----------------
 \______________P.M.____________/
"It's not mature and..."

e|---------------------------------
B|---------------------------------
G|-----------------2-2-2-2-2-2-2-2-
D|-2-2-2-2-2-2-2-2-2-2-2-2-2-2-2-2-
A|-2-2-2-2-2-2-2-2-0-0-0-0-0-0-0-0-
D|-2-2-2-2-2-2-2-2-----------------
 \______P.M.____/\_Slowly release palm mute_/
"But that doesn't alter the fact..."

I can't actually hear the chords for this, but this works and is a pretty reasonable assumption I think:

e|-0--0-0--0-0-0-0--0-0--0-0-0-0--0-0--0-0-0-0--0-0--0-0-0-
B|-0--0-0--0-0-0-0--0-0--0-0-0-0--0-0--0-0-0-0--0-0--0-0-0-
G|-1--1-1--1-1-1-2--2-2--2-2-2-1--1-1--1-1-1-2--2-2--2-2-2-
D|-2--2-2--2-2-2-2--2-2--2-2-2-2--2-2--2-2-2-2--2-2--2-2-2-
A|-2--2-2--2-2-2-0--0-0--0-0-0-2--2-2--2-2-2-0--0-0--0-0-0-
D|-2--2-2--2-2-2---------------2--2-2--2-2-2---------------
"If you hurt me, I will hate you..."

e|-0--0-0--0-0-0-0--0-0--0-0-0-0--0-0--0-0-0-0-----
B|-0--0-0--0-0-0-0--0-0--0-0-0-0--0-0--0-0-0-0-----
G|-1--1-1--1-1-1-2--2-2--2-2-2-1--6-6--6-6-6-7-----
D|-2--2-2--2-2-2-2--2-2--2-2-2-2--6-6--6-6-6-7-----
A|-2--2-2--2-2-2-0--0-0--0-0-0-4--4-4--4-4-4-5-----
D|-2--2-2--2-2-2-----------------------------0-----
"If you hurt me, I will hate you..."

Enjoy. If it's wrong... well this didn't cost you a think, so fucking sue me.



_________________
"Everybodys dead dave, Everybody is dead dave!"
Back to top
View user's profile Send private message Send e-mail MSN Messenger
Haunted Devil



Age: 28
Joined: 10 Oct 2005
Posts: 311
Location: Winsford, Cheshire.

PostPosted: Wed Jun 27, 2007 10:13 pm    Post subject: Reply with quote

Seems like a pretty good tab to me.

aidan, do you want it putting up on Ultimate-Guitar? I've got an account on there.
All credit given to you on it obviously.
I've just submitted a tab for 'Doll Fin' on there not too long ago actually.
_________________
Back to top
View user's profile Send private message
colour_golden
Administrator


Age: 37
Joined: 18 Jan 2004
Posts: 1836
Location: Hull - UK

PostPosted: Thu Jun 28, 2007 2:59 pm    Post subject: Reply with quote

I think he's on holiday so wait till he gets back.
_________________
"Everybodys dead dave, Everybody is dead dave!"
Back to top
View user's profile Send private message Send e-mail MSN Messenger
GS46




Joined: 26 Jun 2007
Posts: 437

PostPosted: Thu Jun 28, 2007 11:31 pm    Post subject: Reply with quote

Thank you SO much. says cheers to aidan colour_golden for me.

now just to learn it.
Back to top
View user's profile Send private message Visit poster's website
sacstan



Age: 30
Joined: 31 Jul 2004
Posts: 131
Location: sheffield

PostPosted: Fri Jun 29, 2007 2:36 am    Post subject: Reply with quote

sounds perfect to me this tab.. Smile
_________________
"turn that on at a party, aint nothing happening. Wack that boy out, everyone be lovin it"
Back to top
View user's profile Send private message Send e-mail
GrizzlyAdams



Age: 36
Joined: 23 Dec 2004
Posts: 40
Location: Manchester

PostPosted: Fri Jun 29, 2007 2:48 pm    Post subject: Reply with quote

I don't think it's in drop D. Makes much more sense in standard tuning (well.....Eb) The 7th fret E in the "It made perfect business sense" part should be an octave lower.....an open E string, rather than an insanely silly stretch to the 2nd fret which it would have to be if it was drop D.
_________________
MPCTV! - www.multipurposechemical.com
Back to top
View user's profile Send private message Visit poster's website
ric
Administrator


Age: 38
Joined: 15 Dec 2003
Posts: 2403
Location: Haslemere

PostPosted: Fri Jun 29, 2007 2:57 pm    Post subject: Reply with quote

Aidan's tab wrote:
It's half a step down, but I've written it in drop D cos I can't be bothered with all the different giggery pokery.
Back to top
View user's profile Send private message Visit poster's website
GrizzlyAdams



Age: 36
Joined: 23 Dec 2004
Posts: 40
Location: Manchester

PostPosted: Fri Jun 29, 2007 3:49 pm    Post subject: Reply with quote

D'oh
_________________
MPCTV! - www.multipurposechemical.com
Back to top
View user's profile Send private message Visit poster's website
tobydixon




Joined: 01 Jul 2007
Posts: 1

PostPosted: Sun Jul 01, 2007 5:10 pm    Post subject: Reply with quote

Just thought i would share an easier way to play the first bit. Standard tuning (but the real version is with all strings down a semitone.)

Code:
e|-------------------|------------------|-------------------|-------------
b|-------------------|------------------|-------------------|-------------
g|-------------------|-----------1------|-------------------|1-1---2s4-----
d|-----------1-------|----1h2-----2-----|-----------1-------|2-2---4s6-----
a|----0h2------2-----|0-----------------|----0h2------2-----|0-0---0-0----
e|0------------------|------------------|0------------------|--------------


Bar the DGBE strings to make it easier.
Just banged it out quick.
Hope this helps.
Back to top
View user's profile Send private message
Aidan
Moderator


Age: 31
Joined: 19 Apr 2004
Posts: 3269
Location: Yateley, Hampshire

PostPosted: Wed Jul 04, 2007 12:33 pm    Post subject: Reply with quote

Yo. I'm back. Glad people liked it - if I'd had time before I went away I would have adjusted it as there are two things I'm not happy with. It is indeed not in drop D, its in the tuned down concert tuning EADGBe tuned down half a step. Also, the regular E chord in the chorus is wrong... theres some awesome dissonance going on there. I'll work it out when I haven't been up for 30 hours. Flights from Cuba suck, I know many of you have probably been all over the world but thats the longest flight I've ever done and it was pants, I feel like shit. Awesome holiday though.

Anyhoo, a corrected version of that will be posted soon. At the suggestion of Ric I'm also going to impliment some kind of organised system of posting/discussing/correcting tabs in the "Your Stuff" section, but again - sleeeeeep needed...
_________________
Well if you're just gonna be like that
Then I'll end up in a fight with someone that I really like
Back to top
View user's profile Send private message Send e-mail Visit poster's website
leaping badger




Joined: 05 Mar 2007
Posts: 46

PostPosted: Thu Jul 12, 2007 4:21 pm    Post subject: Reply with quote

love the tab, would be great to see a finished version on ultimate-guitar sometime
_________________
I reach for heaven and i end up on the floor
Back to top
View user's profile Send private message
alt20




Joined: 09 Feb 2005
Posts: 5

PostPosted: Thu Jul 26, 2007 9:44 am    Post subject: Reply with quote

Hey Aidan,

Thanks for an awesome tab. Am just about to go away and learn it, and was wondering if you'd had a chance to correct it yet?

Thanks

Alt
Back to top
View user's profile Send private message
Display posts from previous:   
Post new topic   Reply to topic    =REUBEN= Forum Index -> Reuben All times are GMT
Goto page 1, 2  Next
Page 1 of 2

 
Jump to:  
You cannot post new topics in this forum
You cannot reply to topics in this forum
You cannot edit your posts in this forum
You cannot delete your posts in this forum
You cannot vote in polls in this forum


Powered by phpBB © 2001, 2005 phpBB Group