=REUBEN= Forum Index =REUBEN=
Welcome to the official =REUBEN= forum
 
 FAQFAQ   SearchSearch   MemberlistMemberlist   UsergroupsUsergroups   RegisterRegister 
 ProfileProfile   Log in to check your private messagesLog in to check your private messages   Log inLog in 

RIRB Tabs

 
Post new topic   Reply to topic    =REUBEN= Forum Index -> Releases
View previous topic :: View next topic  
Author Message
Haunted Devil



Age: 28
Joined: 10 Oct 2005
Posts: 311
Location: Winsford, Cheshire.

PostPosted: Fri Sep 01, 2006 6:19 pm    Post subject: RIRB Tabs Reply with quote

Okay guys. Has anyone tabbed these songs from the album Racecar Is Racecar Backwards?:
Missing Fingers
Wrong And Sorry
Oh The Shame
Dusk
Parties Break Hearts

I think I seen one of Parties Break Hearts on the Fall Of Bastille site though to be honest, but I haven't seen the others on the net anywhere.
Anyways, if someone has tabbed these songs then post them in here somwhere.
Cuz I think once we have them then the whole of Racecar Is Racecar Backwards is tabbed.
_________________
Back to top
View user's profile Send private message
Aidan
Moderator


Age: 30
Joined: 19 Apr 2004
Posts: 3269
Location: Yateley, Hampshire

PostPosted: Fri Sep 01, 2006 11:08 pm    Post subject: Reply with quote

I think I tabbed about 3/4 of missing fingers ages ago, and I worked out the basics of dusk although there are a couple of chords I had problems with. Oh the Shame gave me trouble and Wrong and Sorry I could never be bothered with the tuning.
_________________
Well if you're just gonna be like that
Then I'll end up in a fight with someone that I really like
Back to top
View user's profile Send private message Send e-mail Visit poster's website
Haunted Devil



Age: 28
Joined: 10 Oct 2005
Posts: 311
Location: Winsford, Cheshire.

PostPosted: Fri Sep 01, 2006 11:32 pm    Post subject: Reply with quote

Can you post what you have of those songs if you still have them?
_________________
Back to top
View user's profile Send private message
Haunted Devil



Age: 28
Joined: 10 Oct 2005
Posts: 311
Location: Winsford, Cheshire.

PostPosted: Sun Sep 10, 2006 9:06 pm    Post subject: Reply with quote

Can anyone post them please? Confused
_________________
Back to top
View user's profile Send private message
fender2014




Joined: 06 Oct 2006
Posts: 5

PostPosted: Wed Oct 11, 2006 9:19 am    Post subject: Reply with quote

tabs to the intro to Dusk ~

E-------------------------------------------------------------------------
B-------------------------------------------------------------------------
G---------8---8------------8-8-----------4--4----6-6-6-6--------------
D--------------------------------------------------3-3-3-3---------------
A--4-4-4-4-- 4-----6-6-6-6-6----4-4-4-4--4----4-4-4-4--------------
D--6-6-6-----6-----4-4-4----4----3-3-3----3----0-0-0-0--------------

E-------------------------------------------------------------------------
B-------------------------------------------------------------------------
G---------8---8------------8-8-----------4--4----6-6-6-6-6-6---------
D--------------------------------------------------3-3-3-3-3-3---------
A--4-4-4-4-- 4-----6-6-6-6-6----4-4-4-4--4----4-4-4-4-4-4---------
D--6-6-6-----6-----4-4-4----4----3-3-3----3----0-2-0-0-2-0---------


sorry if its wrong i did my best Very Happy
Back to top
View user's profile Send private message
Kon-Foozed



Age: 25
Joined: 30 Dec 2006
Posts: 58

PostPosted: Tue Jan 02, 2007 3:22 pm    Post subject: Reply with quote

I sorta think I got the intro to parties break hearts, but me and my mate can't decide if it's ....

E-------------------------------------0-0-----------------------------------------
B-------------------------------------3-3------------------------------------------
G-------------------------------------0-0-----------------------------------------
D--3-3--0-0--8-9-8-9--3-3--0-0-------------------------------------------------
A--3-3--0-0--8-9-8-9--3-3--0-0-------------------------------------------------
D--3-3--0-0--8-9-8-9--3-3--0-0----------------------------------------------


Or

E---------------------------------------0-0---------------------------------------
B---------------------------------------4-4----------------------------------------
G---------------------------------------0-0---------------------------------------
D--4-4--0-0--9-10-9-10--4-4--0-0-----------------------------------------------
A--4-4--0-0--9-10-9-10--4-4--0-0-----------------------------------------------
D--4-4--0-0--9-10-9-10--4-4--0-0----------------------------------------------


Probably depending on wether its D tuned or C# tuned. The bass line is just the 33008989/4400910910 bit over and over, but thats all I've got.
Sorry bout not having the rest, but its my best shot. Smile
_________________
"Her voice makes me think of her mouth makes me think of her breath makes me think of her breasts."
Back to top
View user's profile Send private message
Display posts from previous:   
Post new topic   Reply to topic    =REUBEN= Forum Index -> Releases All times are GMT
Page 1 of 1

 
Jump to:  
You cannot post new topics in this forum
You cannot reply to topics in this forum
You cannot edit your posts in this forum
You cannot delete your posts in this forum
You cannot vote in polls in this forum


Powered by phpBB © 2001, 2005 phpBB Group