=REUBEN= Forum Index =REUBEN=
Welcome to the official =REUBEN= forum
 
 FAQFAQ   SearchSearch   MemberlistMemberlist   UsergroupsUsergroups   RegisterRegister 
 ProfileProfile   Log in to check your private messagesLog in to check your private messages   Log inLog in 

Nobody Loves you Tab (Mostly done)

 
Post new topic   Reply to topic    =REUBEN= Forum Index -> Reuben
View previous topic :: View next topic  
Author Message
daniellog




Joined: 29 Sep 2008
Posts: 4

PostPosted: Mon Sep 29, 2008 9:21 pm    Post subject: Nobody Loves you Tab (Mostly done) Reply with quote

I wanted to learn how to play the song but i couldn't find any good tabs so I have decided to tab the song myself. This is how far I have got and this is my first tab so applogies if its wrong in any way. I am stuck at the bit that is two mins into the song, any help would be nice. Smile
Code:

Verses
D#---------------------------------------
A#---------------------------------------
F#---------------------------------------
C#----5-5 5 555/ 10 10 10--9-10----------
G#----3-3 3 333/-10 10 10--1010----------
D#----0-0 0 111/-8- 8- 8---8-8-----------

D#---------------------------------------
A#---------------------------------------
F#---------------------------------------
C#----7-7-7-222-3-3-3/--9-10-------------
G#----5-5-5-222-3-3-3/--1010-------------
D#----5-5-5-000-1-1-1/---8-8-------------

End Bit
D#---------------------------------------
A#------5--5--5--------------------------
F#-----5--5--5---------------------------
C#----3--3--3---99-----------------------
G#--------------88-----------------------
D#---------------------------------------


Last edited by daniellog on Mon Sep 29, 2008 9:22 pm; edited 1 time in total
Back to top
View user's profile Send private message MSN Messenger
GS46




Joined: 26 Jun 2007
Posts: 437

PostPosted: Wed Oct 01, 2008 6:14 am    Post subject: Re: Nobody Loves you Tab (Mostly done) Reply with quote

Verses
D#---------------------------------------
A#---------------------------------------
F#---------------------------------------
C#----5-5 5 555/ 10 10 10--9-10----------
G#----3-3 3 333/-10 10 10--1010----------
D#----0-0 0 111/-8- 8- 8---8-8-----------

D#---------------------------------------
A#---------------------------------------
F#---------------------------------------
C#----7-7-7-222-(2-5-2h5p2----)--5-5-5/--9-10-------------
G#----7-7-7-222-(--------------5)--3-3-3/--1010-------------
D#----5-5-5-000-------------------------1-1-1/---8-8-------------

End Bit
D#---------------------------------------
A#----0-------0-------0------0------6-6---
F#-------5-------5----------5--5----5-5------
C#------------------------------------3-3-----
G#--x-------3-------3-----------------------
D#---------------------------------------


that sounds a bit closer to me.
but this 2:00 bit is foiling me again!


Last edited by GS46 on Wed Oct 01, 2008 6:36 am; edited 3 times in total
Back to top
View user's profile Send private message Visit poster's website
daniellog




Joined: 29 Sep 2008
Posts: 4

PostPosted: Wed Oct 01, 2008 11:54 am    Post subject: Reply with quote

Yeah I think you could be more right, I think the two mins in goes Dm C G then does a lil something with the two bottom strings. If anyone knows how it goes please post on this topic!
Back to top
View user's profile Send private message MSN Messenger
GS46




Joined: 26 Jun 2007
Posts: 437

PostPosted: Thu Oct 02, 2008 5:37 pm    Post subject: Reply with quote

Finally think i've cracked it, woke up yesterday morning at like 7, picked up my guitar, turned on iTunes and it just clicked.

Code:
VERSE
D#---------------------------------------
A#---------------------------------------
F#---------------------------------------
C#---5-5 5 555/ 10 10 10--9-10-----------
G#---3-3 3 333/-10 10 10--1010-----------
D#---0-0 0 111/-8- 8- 8---8-8------------

CHORUS
D#--------------------------------------------
A#--------------------------------------------
F#--------------------------------------------
C#---7-7-7-222-(2-5-2h5p2----)--5-5-5/--9-10--
G#---7-7-7-222-(------------5)--3-3-3/--1010--
D#---5-5-5-000------------------1-1-1/---8-8--

BRIDGE
D#---------------------------------------
A#-------6-------6-------4----8-6-5------
F#-----7-------5-------3-----------------
C#---------------------------------------
G#---5-------3-------3-------------------
D#---------------------------------------

D#---------------------------------------
A#-------6-------6-------4----6-5-3------
F#-----7-------5-------3-------0-0-0-----
C#---------------------------------------
G#---5-------3-------3-------------------
D#---------------------------------------

OUTRO
D#---------------------------------------
A#----0-------0-------0------0------6-6--
F#-------5-------5---------5---5----5-5--
C#----------------------------------3-3--
G#--x-------3-------3--------------------
D#---------------------------------------



EDIT: just seen the above post - that's what i came out with. if you wanted to just play chords it would be something like this:

VERSE: Em F C
CHORUS: Am Em F C (B turnaround)
BRIDGE: Dm C G
OUTRO: C F


Last edited by GS46 on Thu Oct 02, 2008 5:41 pm; edited 2 times in total
Back to top
View user's profile Send private message Visit poster's website
daniellog




Joined: 29 Sep 2008
Posts: 4

PostPosted: Fri Oct 03, 2008 2:49 pm    Post subject: Reply with quote

Quote:
BRIDGE: Dm C G


Ha! I was right!...awesome!

Thanks GS46 you are a star! Very Happy
Back to top
View user's profile Send private message MSN Messenger
LittleWing



Age: 26
Joined: 25 Nov 2008
Posts: 1

PostPosted: Tue Nov 25, 2008 6:29 pm    Post subject: Piano sheet music Reply with quote

Hi! I play a bit of guitar but I'm not great, so is there any way anyone could put the piano sheet music up for Nobody Loves You as I'd LOVE to be able to play it properly!!! Or alternatively just 'translate' as it were the tabs into piano form...I'd really appreciate anyone's help, thank you!
Back to top
View user's profile Send private message
LavellionTom




Joined: 12 Apr 2012
Posts: 1
Location: Hull, UK

PostPosted: Thu Apr 12, 2012 6:26 pm    Post subject: Nobody Loves you tab Reply with quote

Reuben - Nobody Loves You

Tabbed by LavellionTom

I could only find one version of this song online which is more suited for playing on acoustic and singing along.
I had to sit down and do this tab as I feel it's an amazing piece of guitar playing which needs to be shared.
The tunings for each song are found on the insert of the album sleve so I went from that but found it was far easier dropping the bottom string to
C#. I know this isn't the same as how Jamie plays it on the record but I found most of it easier, aside from the Mid 8 section
which, what I've done, is close but not how it is on the record.

If you want to play it like it is exactly to the record with the tuning D#G#C#F#A#D# just shift everything from the tab on the bottom string down 2 frets.

The timing isn't exact so it's best to listen to the track and play along.
This is as close as i could get.

Hope you find it useful!


INTRO/VERSE

D#--------------------
A#--------------------
F#--------------------
C#---5--5---10-10p9---
G#---3--3---10-10-----
C#---2--3---10-10----- x4

"oooh I'm all alone...."


CHORUS

D#----------------------
A#----------------------
F#---9-9--16------------
C#---7-7--14---10p9-----
G#---7-7--14---10-10----
C#---7-7--14---10-10---- x2

"so here it is, from me to you..."


VERSE

D#--------------------
A#--------------------
F#--------------------
C#---5--5---10-10p9---
G#---3--3---10-10-----
C#---2--3---10-10----- x4

"and ooooh you are talented..."


CHORUS

D#----------------------
A#----------------------
F#---9-9--16------------
C#---7-7--14---10p9-----
G#---7-7--14---10-10----
C#---7-7--14---10-10---- x4


"so quiet now, between us two....."


MID 8 SECTION

D#--7---------------------
A#--6---5---0-6-5-3-------
F#--7---5---4-4-4-4-------
C#--7---5---5-0-0-0-------
G#--5---3---5-5-5-5-------
C#----------5-5-5-5-------

"so don't give up, it's not the way......"

The timing on this need to be listened to. The chords play more than how many I have put and they are picked and strummed.

VERSE

D#-------------------- --------------
A#-------------------- --------------
F#-------------------- --------------
C#---5--5---10-10p9--- ---5--5---10--
G#---3--3---10-10----- ---3--3---10--
C#---2--3---10-10----- ---2--3---10--

"and ooooh, lost it out....and ooooh but you gave it all you had.."

D#-------------------------------
A#-------------------------------
F#-------------------------------
C#---5--5---10---9--10-12-10-9---
G#---3--3---10---10-10-10-10-10--
C#---2--3---10---10-10-10-10-10--

"and ooooh, and in the end......"

D#--------------------
A#--------------------
F#--------------------
C#---5--5---10-10p9---
G#---3--3---10-10-----
C#---2--3---10-10-----

"and ooooh, that is the best we can ever hope for..."


CHORUS

D#----------------------
A#----------------------
F#---9-9--16------------
C#---7-7--14---10p9-----
G#---7-7--14---10-10----
C#---7-7--14---10-10---- x4


"so here it is, so dont be blue....."

Before the outro section it holds the last chord of the chorus without the pull off onto the 9th fret.


OUTRO

D#----------------------------------------
A#----0-------0-------0-------------6-6---
F#-------5-------5---------5---5----5-5---
C#----------------------------------3-3---
G#--3-------3-------3--------3------------
C#----------------------------------------


The outro section fades out and gives way to a string section. So all the guitar parts are over.
Back to top
View user's profile Send private message
Display posts from previous:   
Post new topic   Reply to topic    =REUBEN= Forum Index -> Reuben All times are GMT
Page 1 of 1

 
Jump to:  
You cannot post new topics in this forum
You cannot reply to topics in this forum
You cannot edit your posts in this forum
You cannot delete your posts in this forum
You cannot vote in polls in this forum


Powered by phpBB © 2001, 2005 phpBB Group