=REUBEN= Forum Index =REUBEN=
Welcome to the official =REUBEN= forum
 
 FAQFAQ   SearchSearch   MemberlistMemberlist   UsergroupsUsergroups   RegisterRegister 
 ProfileProfile   Log in to check your private messagesLog in to check your private messages   Log inLog in 

Master Reuben Tablist
Goto page Previous  1, 2, 3, 4, 5, 6, 7, 8, 9, 10  Next
 
Post new topic   Reply to topic    =REUBEN= Forum Index -> Reuben
View previous topic :: View next topic  
Author Message
ric
Administrator


Age: 37
Joined: 15 Dec 2003
Posts: 2403
Location: Haslemere

PostPosted: Thu Sep 10, 2009 9:41 am    Post subject: Reply with quote

yes, if they haven't died of old age Wink
Back to top
View user's profile Send private message Visit poster's website
skad4life




Joined: 02 Aug 2007
Posts: 41

PostPosted: Mon Dec 07, 2009 8:06 pm    Post subject: Reply with quote

Is this still alive? aidan's tabs are quality...really top job sir. Just hope there could be more to come in the future
Back to top
View user's profile Send private message
Aidan
Moderator


Age: 31
Joined: 19 Apr 2004
Posts: 3269
Location: Yateley, Hampshire

PostPosted: Tue Dec 08, 2009 2:33 am    Post subject: Reply with quote

I haven't forgotten about this. I'm currently doing about 2 hours a day on tabs, but I've been on tour for the last 3 weeks so I've only just got back to it. Sorry, they're coming, honestly...
_________________
Well if you're just gonna be like that
Then I'll end up in a fight with someone that I really like
Back to top
View user's profile Send private message Send e-mail Visit poster's website
ric
Administrator


Age: 37
Joined: 15 Dec 2003
Posts: 2403
Location: Haslemere

PostPosted: Tue Dec 08, 2009 10:04 am    Post subject: Reply with quote

is it worth putting some of them on now?

well., now "ish"? or do you want to wait til you've finished them all
Back to top
View user's profile Send private message Visit poster's website
Aidan
Moderator


Age: 31
Joined: 19 Apr 2004
Posts: 3269
Location: Yateley, Hampshire

PostPosted: Tue Dec 08, 2009 11:23 am    Post subject: Reply with quote

YHM
_________________
Well if you're just gonna be like that
Then I'll end up in a fight with someone that I really like
Back to top
View user's profile Send private message Send e-mail Visit poster's website
=Henry=



Age: 26
Joined: 19 Aug 2009
Posts: 19

PostPosted: Tue Dec 08, 2009 11:55 am    Post subject: numb Reply with quote

I have just worked out the verse parts of numb at four in the morning, and was wondering if someone could help me out on the rest of it, does anyone have a full tab for the song? I will post what i have here when im done typing it up, but im slow at writing tabs out so it might be a while
_________________
the blind are leading the stupid...
Back to top
View user's profile Send private message MSN Messenger
skad4life




Joined: 02 Aug 2007
Posts: 41

PostPosted: Tue Dec 08, 2009 5:52 pm    Post subject: Reply with quote

Aidan wrote:
I haven't forgotten about this. I'm currently doing about 2 hours a day on tabs, but I've been on tour for the last 3 weeks so I've only just got back to it. Sorry, they're coming, honestly...


Don't apologise dude! No way I'd find the time at the moment, so I'm just greatful even if they're some way off being posted.

What's this band you're in? I'll have to have a wee listen
Back to top
View user's profile Send private message
=Henry=



Age: 26
Joined: 19 Aug 2009
Posts: 19

PostPosted: Mon Dec 14, 2009 1:16 pm    Post subject: numb Reply with quote

ok this is numb at four in the morning as far as I have worked out, can anyone give me a hand at working out the chorus? i would greatly apprechiate it as this song is always overlooked in this kind of thing

Standard Tuning


Intro

e|----0----000-0---000-0-00--0-000-0---000-0-00---00-------||
b|---0h2-222-2h3-333-3-33--3-333-3s5-555-5-55--00-------||
G|----2---222-2----222-2-22--0-000-0---000-0-00---22------*||
D|----2---222-2----222-2-22--0-000-0---000-0-00---22------*||
A|----------------------------------------------------------------------||
E|----------------------------------------------------------------------|| x2

e|---0-000-0-000-0-00-0-000-0-000-0-00-0-000-0-000-0-00--||
b|---0-000-0-000-0-00-0-000-2-222-2-00-0-000-0-000-0-00--||
G|---0-000-2-222-2-22-0-000-2-222-2-22-0-000-2-222-2-22--||
D|---2-222-2-222-2-22-2-222-2-222-2-22-2-222-2-222-2-22--||
A|---2-222-0-000-0-00-2-222-0-000-0-00-2-222-0-000-0-00--||
E|---00-000---------------0-000----------------0-000----------------||

e|---000----000-0---000-0-00-------------------------------||
b|---000h2-222-2h3-333-3-22-----------------------------||
G|---222---222-2----222-2-22------------------------------||
D|---222---222-2----222-2-22------------------------------||
A|---------------------------------------------------------------||
E|---------------------------------------------------------------||

Verse

Yeah I should have been...
e|---0-000-0-000-0-00-0-000-0-000-0-00-0-000-0-000-0-00--||
b|---0-000-0-000-0-00-0-000-0-000-0-00-0-000-0-000-0-00--||
G|---0-000-2-222-2-22-0-000-2-222-2-22-0-000-2-222-2-22--||
D|---2-222-2-222-2-22-2-222-2-222-2-22-2-222-2-222-2-22--||
A|---2-222-0-000-0-00-2-222-0-000-0-00-2-222-0-000-0-00--||
E|----0-000---------------0-000----------------0-000----------------||

e|---000----000-0----000-0-00------------------------------||
b|---000h2-222-2h3-333-3-22------------------------------||
G|---222---222-2----222-2-22------------------------------||
D|---222---222-2----222-2-22------------------------------||
A|----------------------------------------------------------------||
E|----------------------------------------------------------------||

Iíve got nothing left...
e|---0-000-0-000-0-00-0-000-0-000-0-00-0-000-0-000-0-00--||
b|---0-000-0-000-0-00-0-000-2-222-2-00-0-000-0-000-0-00--||
G|---0-000-2-222-2-22-0-000-2-222-2-22-0-000-2-222-2-22--||
D|---2-222-2-222-2-22-2-222-2-222-2-22-2-222-2-222-2-22--||
A|---2-222-0-000-0-00-2-222-0-000-0-00-2-222-0-000-0-00--||
E|----0-000---------------0-000----------------0-000----------------||

e|---000----000-0---000-0-00------------------------------||
b|---000h2-222-2h3-333-3-22-----------------------------||
G|---222---222-2----222-2-22------------------------------||
D|---222---222-2----222-2-22------------------------------||
A|----------------------------------------------------------------||
E|----------------------------------------------------------------||

CHORUS...
_________________
the blind are leading the stupid...
Back to top
View user's profile Send private message MSN Messenger
GS46




Joined: 26 Jun 2007
Posts: 437

PostPosted: Mon Dec 14, 2009 2:09 pm    Post subject: Reply with quote

how's about this:
Code:

E -3-3-3-3-3-3-3-3-
B -3-3-3-3-3-3-3-3-
G -2-2-2-2-2-2-2-2-
D -3-3-3-3-3-3-3-3-
A -----------------
E -----------------

E -3-3-3-3-3-3-3-3-
B -3-3-3-3-3-3-3-3-
G -2-2-2-2-2-2-2-2-
D -2-2-2-2-2-2-2-2-
A -0-0-0-0-0-0-0-0-
E -----------------

E --------------------5-
B --------------------5-
G ----------------------
D ----------------------
A -0-0-0-2-2-2-4-4-4----
E ----------------------
Back to top
View user's profile Send private message Visit poster's website
GS46




Joined: 26 Jun 2007
Posts: 437

PostPosted: Mon Dec 14, 2009 2:26 pm    Post subject: Reply with quote

and the bridge:
Code:

E -0--0-0-0-0-0-0--0-0-0-0-0-0--0-0-0-0-0-
B -8--8-8-8-8-8-7--7-7-7-7/8-5--5-5-5-5/7-
G -0--0-0-0-0-0-0--0-0-0-0-0-0--0-0-0-0-0-
D -5--5-5-5-5-5-4--4-4-4-4/5-2--2-2-2-2-4-
A ---------------------------0--0-0-0-0---
E ----------------------------------------

E -0--0-0-0-0-0-0--0-0-0-0-0-0--0-0-0-0-0-
B -8--8-8-8-8-8-7--7-7-7-7/8-0--0-0-0-0-0-
G -0--0-0-0-0-0-0--0-0-0-0-0-2--2-2-2-2-2-
D -5--5-5-5-5-5-4--4-4-4-4/5-2--2-2-2-2-2-
A ---------------------------0--0-0-0-0-0-
E ----------------------------------------

E -0--0-0-0-0-0-0--0-0-0-0-0-0--0-0-0-0-0-
B -8--8-8-8-8-8-7--7-7-7-7/8-5--5-5-5-5/7-
G -0--0-0-0-0-0-0--0-0-0-0-0-0--0-0-0-0-0-
D -5--5-5-5-5-5-4--4-4-4-4/5-2--2-2-2-2-4-
A ---------------------------0--0-0-0-0---
E ----------------------------------------

E -0--0-0-0-0-0-0--0-0-0-0-0-0--0-0-0-0-0-
B -8--8-8-8-8-8-7--7-7-7-7/8-0--2-2-2-2-2-
G -0--0-0-0-0-0-0--0-0-0-0-0-2--2-2-2-2-2-
D -5--5-5-5-5-5-4--4-4-4-4/5-2--2-2-2-2-2-
A ---------------------------0--0-0-0-0-0-
E ----------------------------------------
Back to top
View user's profile Send private message Visit poster's website
layersofhistory



Age: 25
Joined: 29 Dec 2007
Posts: 415
Location: Blackwater/Loughborough Uni

PostPosted: Mon Jan 11, 2010 8:00 pm    Post subject: Reply with quote

Will there be bass tabs? Very Happy
It's all I can play...
_________________
...
Back to top
View user's profile Send private message Visit poster's website MSN Messenger
Scotty



Age: 26
Joined: 28 Jun 2008
Posts: 188
Location: Ipswich

PostPosted: Wed Jan 27, 2010 2:20 pm    Post subject: Reply with quote

Just worked out What's Good For Me, can anyone recommend a good tabbing program so I can put it up?
_________________


http://www.last.fm/user/ripscarspitstar
Back to top
View user's profile Send private message Visit poster's website MSN Messenger
dan10k



Age: 32
Joined: 21 Apr 2008
Posts: 54
Location: Warrington

PostPosted: Tue Mar 09, 2010 12:21 am    Post subject: Reply with quote

Guitar Pro 5 is pretty good and fairly easy to pick up a crack/keygen for.
_________________
Let's Fighting Love!
Back to top
View user's profile Send private message Send e-mail Visit poster's website MSN Messenger
blackdakhma




Joined: 01 Aug 2009
Posts: 9

PostPosted: Fri May 07, 2010 3:31 am    Post subject: Reply with quote

We're All Going Home in an Ambulance
http://www.youtube.com/watch?v=JGnJ9j4kU6A

Only major difference I noticed from the already posted tab that's definite is in the second verse (among other things noticeable in the video). The first half of the high bit should be this.

Code:
eb|---------------------------------------------|
Bb|--17-(x8)------------------------------------|
Gb|-----------15-(x8)--18-(x6)------------------|
Db|-------------------------------15-14-(x8)----|
Ab|---------------------------------------------|
Db|----------------------------12---------------|


I still haven't taken time to figure out the 6/4 nonsensical solo-y bit.
Back to top
View user's profile Send private message Send e-mail
hellstalkers



Age: 49
Joined: 17 May 2010
Posts: 1

PostPosted: Mon May 17, 2010 2:51 am    Post subject: Great Tabs for great songs Reply with quote

Thank s for the posted tabs
_________________
2 line cordless phone with answering machine
Back to top
View user's profile Send private message Visit poster's website
Display posts from previous:   
Post new topic   Reply to topic    =REUBEN= Forum Index -> Reuben All times are GMT
Goto page Previous  1, 2, 3, 4, 5, 6, 7, 8, 9, 10  Next
Page 9 of 10

 
Jump to:  
You cannot post new topics in this forum
You cannot reply to topics in this forum
You cannot edit your posts in this forum
You cannot delete your posts in this forum
You cannot vote in polls in this forum


Powered by phpBB © 2001, 2005 phpBB Group